Song name
# A B C D E F G H I J K L M N O P Q R S T U V W X Y Z

Misc Christmas - The First Noel chords

Highlighted       Show chord diagrams
-----------------------------------------------------------------------------
			     THE FIRST NOEL
-----------------------------------------------------------------------------
Tabbed by: SoulSisWishing


Tuning: Standard. Capo if needed (to suit your range)

CHORDS USED:
    G      D     Em    C     Bm
e|--1--- --2-- --0-- --0-- --2--|
B|--0--- --3-- --0-- --1-- --0--|
G|--0--- --2-- --0-- --0-- --4--|
D|--0--- --0-- --2-- --2-- --0--|
A|--2--- --x-- --2-- --3-- --2--|
E|--3--- --x-- --0-- --x-- --x--|


G
G           D       Em         D
The First Noel, the Angels did say
       Em          D             C              G
Was to certain poor shepherds in fields as they lay
G               D       Em             D
In fields where they lay keeping their sheep
    Em             D          C      G
On a cold winter's night that was so deep.
G     D     Em    Bm
Noel, Noel, Noel, Noel
Em          D       C   G
Born is the King of Israel!

The same pattern is repeated for the rest of the song. Note: Bm on the 4th 'noel' if it 
the high note, but keep it D if it's not.

MERRY CHRISTMAS ;)
Tap to rate this tab
 
# A B C D E F G H I J K L M N O P Q R S T U V W X Y Z