Misc Christmas - O Christmas Tree tab

----------------------------------------------------------------------------
			     O Christmas Tree  (Christmas)
----------------------------------------------------------------------------

Tabbed by:  Christmas Guy
Email:

Tuning: Standard


e|---------------------------|------------------------|
B|---------------------------|-----------1------------|
G|-----0--0--0--2--4--4--4---|--4--2--4--------2--0---|
D|--0------------------------|--------------4---------|
A|---------------------------|------------------------|
E|---------------------------|------------------------|


e|---------------------------|------------------------|
B|---------------------------|-----------1------------|
G|-----0--0--0--2--4--4--4---|--4--2--4--------2--0---|
D|--0------------------------|--------------4---------|
A|---------------------------|------------------------|
E|---------------------------|------------------------|


e|-----------0---------------|---------------------------|
B|--3--3--------3--3--1--1---|--1--1-----3--1--1--0--0---|
G|--------4------------------|--------2------------------|
D|---------------------------|---------------------------|
A|---------------------------|---------------------------|
E|---------------------------|---------------------------|


e|---------------------------|------------------------|
B|---------------------------|-----------1------------|
G|-----0--0--0--2--4--4--4---|--4--2--4--------2--0---|
D|--0------------------------|--------------4---------|
A|---------------------------|------------------------|
E|---------------------------|------------------------|
Tap to rate this tab
 
# A B C D E F G H I J K L M N O P Q R S T U V W X Y Z