Misc Christmas - Once In Royal Davids City tab

e|---0-1---1-1-0-1-3-3-1---1-5-8---5-5-3-1-0-1--|
B|-1--------------------------------------------|
G|----------------------------------------------|
D|----------------------------------------------|
A|----------------------------------------------|
E|----------------------------------------------|

e|---0-1---1-1-0-1-3-3-1---1-5-8---5-5-3-1-0-1--|
B|-1--------------------------------------------|
G|----------------------------------------------|
D|----------------------------------------------|
A|----------------------------------------------|
E|----------------------------------------------|

e|-10-10-8---1-6-6-5---10-10-8---1-5-3-1-0-1----|
B|----------------------------------------------|
G|----------------------------------------------|
D|----------------------------------------------|
A|----------------------------------------------|
E|----------------------------------------------|
Tap to rate this tab
 
# A B C D E F G H I J K L M N O P Q R S T U V W X Y Z