Song name
# A B C D E F G H I J K L M N O P Q R S T U V W X Y Z

Misc Christmas - O Little Town Of Bethlehem tab

-----------------------------------------------------------------------------
 O Little Town of Bethlehem  Nick Gasser
-----------------------------------------------------------------------

Tabbed by: The Gasser
Email:nickj007@aol.com

Tuning: Standard

(Note: This song is played rather slowly; listen to the tempo in Mannheim
Steamroller's version for the exact tempo.)

Verse I
e|---------------------------------------------------------------------------|
B|---------------------------------------------------------------------------|
G|----14-14-14-13-14-17-15-7-12-10-9-10-12-5-14--------14-14-14-19-17-17-15-7|
D|---------------------------------------------------------------------------|
A|----12-12-12-11-12-15-13-5-10-8--7-8--10-3-12--------12-12-12-17-15-15-13-5|
E|---------------------------------------------------------------------------|

e|---------------------------------------------------------------------------|
B|---------------------------------------------------------------------------|
G|---------------------------------------------------------------------------|
D|--12-10-9--10-14-12-10-----------------------------------------------------|
A|--10--8-7--8--12-10--8-----------------------------------------------------|
E|---------------------------------------------------------------------------|

Verse II
e|-----------------------------------------------------------------------------|
B|-----------------------------------------------------------------------------|
G|-14-14-14-12-10-9-----9-9-7-9-10-12-14---14-14-14-19-1-7-17-15-7-12-10-9-10--|
D|-----------------------------------------------------------------------------|
A|-12-12-12-10--8-7-----7-7-5-7--8-10-12----12-12-12-17-15-15-13-5-10--8-7-8---|
E|-----------------------------------------------------------------------------|

e|---------------------------------------------------------------------------|
B|---------------------------------------------------------------------------|
G|-14-12--10-----------------------------------------------------------------|
D|---------------------------------------------------------------------------|
A|-12-10--8------------------------------------------------------------------|
E|---------------------------------------------------------------------------|

Repeat Verse I, II twice

Solo
e|---------------------------------------------------------------------------|
B|---------------------------------------------------------------------------|
G|-------------5-5-5-5-5--------------17-17-17-16-17-20-18-10-15-13-12-13-15-|
D|-------------5-5-5-5-5-----------------------------------------------------|
A|--0-3-2-5-3--3-3-3-3-3--------------15-15-15-14-15-18-16--8-13-11-10-11-13-|
E|---------------------------------------------------------------------------|

e|---------------------------------------------------------------------------|
B|---------------------------------------------------------------------------|
G|-8-17---------17-17-17-22-20-18-18-10-15-13-12-13-17-15-13-------17-17-17--|
D|---------------------------------------------------------------------------|
A|-6-15---------15-15-15-20-18-16-16--8-13-11-10-11-15-13-11-------15-15-15--|
E|---------------------------------------------------------------------------|

e|-----------------------------------------------------------------------------|
B|-----------------------------------------------------------------------------|
G|-15-13-12--------12-12-10-12-13-15-17---17-17-17-22-20-20-18-10-15-13-12-13--|
D|-----------------------------------------------------------------------------|
A|-13-11-10--------10-10--8-10-11-13-15---15-15-15-20-18-18-16--8-13-11-10-11--|
E|-----------------------------------------------------------------------------|

|e|--------------------------------------------------------------------------|
B|---------------------------------------------------------------------------|
G|-17-15-13------------------------------------------------------------------|
D|---------------------------------------------------------------------------|
A|-15-13-11------------------------------------------------------------------|
E|---------------------------------------------------------------------------|

Outro
e|---------------------------------------------------------------------------|
B|---------------------------------------------------------------------------|
G|-17-17-13-13------20-18-10------13-------------13--------------------------|
D|---------------------------------------------------------------------------|
A|-15-15-11-11------18-16--8------11-------------11--------------------------|
E|---------------------------------------------------------------------------|


************************************

| /   slide up
| \   slide down
| h   hammer-on
| p   pull-off
| ~   vibrato
| +   harmonic
| x   Mute note
| b   Bend
| pb  Pre-bend
| br  Bend release
| pbr Pre-bend release
| brb Bend release bend

************************************
Tap to rate this tab
 
# A B C D E F G H I J K L M N O P Q R S T U V W X Y Z