Misc Christmas - O Holy Night tab

Merry Christmas to all with this Christmas song. Fully tabbed by ear.


(/) Slide Up  (\) Slide Down  (h) Hammer On  (p) Pull Off  (b) Bend (r) Release (v) Vibrato

E|------------------------------------------------------------------------|
B|--------------------------------------------9--------9--10h12-10-9------|
G|--5/6--9--9--11--11--7--11/14--9--8h9p8-------9--10-------------------v6|
D|-----------------------------------------10-----------------------------|
A|------------------------------------------------------------------------|
E|------------------------------------------------------------------------|


E|-----------------------------------------------|
B|-----------------------------------------------|
G|-----------v11-----------------v14-------------|
D|----v14------------v14-----16----------v16--v14|
A|16------16-----14------------------16----------|
E|-----------------------------------------------|

E|-------------------------------------|--7/16b17v--v17--v17--|
B|-------------------------------------|----------------------|
G|------v11--------------v14------6/9v-|----------------------|
D|--14----------v14--v16---------------|----------------------|
A|----------14---------------16--------|----------------------|
E|------------------------------------------------------------|

E|17r16--14--16v-|
B|---------------|
G|---------------|
D|---------------|
A|---------------|
E|---------------|


E|--14--17b19v--19--19--14v--14v--16b17v--17--17h19b21v--21--21--21r19v--19v-|
B|---------------------------------------------------------------------------|
G|---------------------------------------------------------------------------|
D|---------------------------------------------------------------------------|
A|---------------------------------------------------------------------------|
E|---------------------------------------------------------------------------|


E|--17h19--17h19--17h19--17h19--17h19--17h19--17h19--16h17--16h17--16h17----|
B|--------------------------------------------------------------------------|
G|--------------------------------------------------------------------------|
D|--------------------------------------------------------------------------|
A|--------------------------------------------------------------------------|
E|--------------------------------------------------------------------------|

E|16h17--16v--|
B|------------|
G|------------|
D|------------|
A|------------|
E|------------|


E|--16---------------------14--12----------------|--12--17b19v--v19--v19\-|
B|------19--17v--17v--v17----------17v--17v--17v-|------------------------|
G|-----------------------------------------------|------------------------|
D|-----------------------------------------------|------------------------|
A|-----------------------------------------------|------------------------|
E|-----------------------------------------------|------------------------|

E|--------------------17h19h21-22b24--|
B|--7/17-----17h19h21-----------------|
G|------------------------------------|
D|------------------------------------|
A|------------------------------------|
E|------------------------------------|

E|--17h19h21v--21v--21v--21v--21--21--21--21--21p19--19--19--19--19--17--17--|
B|---------------------------------------------------------------------------|
G|---------------------------------------------------------------------------|
D|---------------------------------------------------------------------------|
A|---------------------------------------------------------------------------|

17--17--17--|
------------|
------------|
------------|
------------|
Tap to rate this tab
 
# A B C D E F G H I J K L M N O P Q R S T U V W X Y Z