Misc Christmas - Jingle Bells tab

E|--0---0---0----|-0---0---0----|-0---3------------|-0----|
B|---------------|--------------|---------1----3---|------|
G|---------------|--------------|------------------|------|
D|---------------|--------------|------------------|------|
A|---------------|--------------|------------------|------|
E|---------------|--------------|------------------|------| 


E|-1---1---1---1---|-1---0---0---0----|-0-----------0----|-----3----|
B|-----------------|------------------|-----3---3--------|-3--------|
G|-----------------|------------------|------------------|----------|
D|-----------------|------------------|------------------|----------|
A|-----------------|------------------|------------------|----------|
E|-----------------|------------------|------------------|----------|


E|--0---0---0----|-0---0---0----|-0---3------------|-0----|
B|---------------|--------------|---------1---3----|------|
G|---------------|--------------|------------------|------|
D|---------------|--------------|------------------|------|
A|---------------|--------------|------------------|------|
E|---------------|--------------|------------------|------|


E|-1---1---1---1---|-1---0---0---0----|-3---3---1--------|------|
B|-----------------|------------------|-------------3----|-1----|
G|-----------------|------------------|------------------|------|
D|-----------------|------------------|------------------|------|
A|-----------------|------------------|------------------|------|
E|-----------------|------------------|------------------|------|
Tap to rate this tab
 
# A B C D E F G H I J K L M N O P Q R S T U V W X Y Z