Misc Christmas - Away In A Manger tab

Away In A Manger

Tab submitted by: Harold Schaefer
Email: schaefeh_19440@yahoo.com

This sounds better if capo'ed up a few frets.  

Tab Notes:
Tuning: Standard
/ = slide



    G	            C             G          D           C      G
e|----------------------|----------------|-------------------------|
B|-3-3--1-0-0-----------|----------------|----------------------0--|
G|-0-----------2-0----0-|----------------|---------2----------0-0--|
D|-0-----------------2--|--4-2----0--0---|-0-2-0-0---4--2-0-----0--|
A|-2----------------3---|--------2-------|-0-----------3--------2--|
E|-3--------------------|-------3--------|----------------------3--|



    G	          C             G      Am     G     Am      G
e|--------------------|--------------|-------------------------|
B|-3-3--1-0-0---------|--------------|-1-0----0-------------0--|
G|-0----------2-0---0-|--------------|-2---2--0-2-0-2-------0--|
D|-0---------------2--|--4-2----0--0-|-2------0-----2-2-/4--0--|
A|-2--------------3---|--------2-----|-0------2-----0-------2--|
E|-3------------------|-------3------|--------3-------------3--|
Tap to rate this tab
 
# A B C D E F G H I J K L M N O P Q R S T U V W X Y Z