Guitaretab - guitar tabs
Song name
# A B C D E F G H I J K L M N O P Q R S T U V W X Y Z

Misc Christmas - God Rest You Merry Gentlemen tab

----------------------------------------------------------------------------
		God Rest Ye Merry Gentlemen - Misc Christmas
----------------------------------------------------------------------------
Tabbed by: J Boy Shyne	
Email: jboyshyne@yahoo.com
Tuning: Standard Key of Am
Note:  Here's a simple finger style arrangement. In 4/4 time.  The first part is
basically 2 note voicings and then it switches to 3 note voicings


 E7           G	  Am	  Em        C      Am       Am       C      
|-0--------------|-----0---0------|----------------|----------------|
|-0--------------|-------------3--|-1---0----------|-----0---1---3--|
|-1-----------0--|-2---2---2------|---------2---0--|-2--------------|
|-0--------------|-------------3--|-2---0----------|-----0---2---3--|
|-2--------------|-0--------------|---------0------|-0--------------|
|-0-----------3--|----------------|-------------3--|----------------|

  E7          G   Am      Em        C      Am       Am       C
|-0--------------|-----0---0------|----------------|----------------|
|-0--------------|-------------3--|-1---0----------|-----0---1---3--|
|-1-----------0--|-2---2---2------|---------2---0--|-2--------------|
|-0--------------|-------------3--|-2---0----------|-----0---2---3--|
|-2--------------|-0--------------|---------0------|-0--------------|
|-0-----------3--|----------------|-------------3--|----------------|

  E7               F      Em        G      Em	    Am      Em
|-0-----------0--|-1-------0---1--|-3---5---0------|----------------|
|-0--------------|-----3----------|-------------3--|-1-------0---1--|
|-1--------------|-2-------0---2--|-4---5---0------|-----2----------|
|-0--------------|-----3----------|-------------3--|-2-------0---2--|
|-2--------------|----------------|----------------|-----0----------|
|-0--------------|----------------|----------------|----------------|

 Dm      Am        C      Dm       Em       C       Am       C      
|----------------|-0-------1---0--|-0--------------|----------------|
|-3-------1---3--|----------------|-----3---1---0--|---------1P0----|
|----------------|-0-------2---0--|-0--------------|-2-----------2--|
|-3-------2---3--|----------------|-----3---2---0--|---------2------|
|----------------|----------------|----------------|-0-----------0--|
|----------------|----------------|----------------|----------------|
[ Tab from: http://www.guitaretab.com/m/misc-christmas/27135.html ]
 Dm      Am        C       G       Em       C       Am 
|----------------|-0---1---3---5--|-0--------------|---------0---3--|
|-3-------1---3--|----------------|-----3---1---0--|-------1--------|
|----------------|-0---2---4---5--|-0--------------|-----2----------|
|-3-------2---3--|----------------|-----3---2---0--|---2------------|
|----------------|----------------|----------------|-0--------------|
|----------------|----------------|----------------|----------------|

 Am7	     Am   Am   Am  Em  Dm   C  Em  Am   G   Am  Em   C   Dm
|-5-----------5--|-5---12--12--10-|-8---7---5---3--|-5---7---8---10-|
|-5-----------5--|-5---13--12--10-|-8---8---5---3--|-5---8---8---10-|
|-5-----------5--|-5---14--12--10-|-9---9---5---2--|-5---9---9---10-|
|-5--------------|----------------|----------------|----------------|
|-7--------------|-0--------------|-0--------------|-0--------------|
|-5--------------|----------------|----------------|----------------|

  Am         Am   Am   Am  Em  Dm   C  Em  Am   G   Am  Em   C   Dm   
|-12----------5--|-5---12--12--10-|-8---7---5---3--|-5---7---8---10-|
|-13----------5--|-5---13--12--10-|-8---8---5---3--|-5---8---8---10-|
|-14----------5--|-5---14--12--10-|-9---9---5---2--|-5---9---9---10-|
|-14-------------|----------------|----------------|----------------|
|-0--------------|-0--------------|-0--------------|-0--------------|
|----------------|----------------|----------------|----------------|

  Am          Am   F   Dm  Em  F    G   Am  Em  Dm   C  Am  Em   C
|-12----------12-|-13--10--12--13-|-15--17--12--10-|-8---5---7---8--|
|-13----------13-|-13--10--12--13-|-15--17--12--10-|-8---5---8---8--|
|-14----------14-|-14--10--12-14-|-12--17--12--10-|-9---5---9---9--|
|-14-------------|----------------|----------------|----------------|
|-0--------------|----------------|----------------|----------------|
|----------------|-13-------------|----------------|----------------|

  Dm      C   Dm   Am      F   Am   Em  Dm  C  Em   Am       C Em Am
|-10------8---10-|-12------13--12-|-12--10--8---7--|-5-------8-7--5-|
|-10------8---10-|-13------13--13-|-12--10--8---8--|-5-------8-8--5-|
|-10------9---10-|-14------14--14-|-12--10--9---9--|-5-------9-9--5-|
|----------------|----------------|----------------|----------------|
|----------------|----------------|----------------|----------------|
|----------------|----------------|----------------|----------------|

  Dm      C   Dm   Am  F   G   Am   Em  Dm  C  Em   Am7
|-10------8---10-|-12--13--15--17-|-12--10--8---7--|-5--------------||
|-10------8---10-|-13--13--15--17-|-12--10--8---8--|-5--------------||
|-10------9---10-|-14--14--12--17-|-12--10-9---9--|-5--------------||
|----------------|----------------|----------------|-5--------------||
|----------------|----------------|----------------|-7--------------||
|----------------|----------------|----------------|-5--------------||


Back to stop and start all over again
Related for God Rest You Merry Gentlemen tab