Song name
# A B C D E F G H I J K L M N O P Q R S T U V W X Y Z

Misc Christmas - Oh Come All Ye Faithful tab

tab by Adam Bass (a.k.a. Orion89)
e-mail with questions at mclouf89@gmail.com
This is one of my first tabs. I was just playing around and figured it out. I think it is pretty simple.


e | -6-6---6-8-----10-8-10-11-10-8---6-6-5-3-5-6-8-10-------------|
B | -----6-----6----------------------------------------10-8-6-6--|
G | --------------------------------------------------------------|
D | --------------------------------------------------------------|
A | --------------------------------------------------------------|
E | --------------------------------------------------------------|

e | -6-4-3-4-3---------------|
B | -----------4-6-----------|
G | ---------------6-8-5-3-1-|
D | -------------------------|
A | -------------------------|
E | -------------------------|

e | -------------------------------------------------------------------------|
B | -------------------------------------------------------------------------|
G | -6-6-5-6-8-6-----10-10-8-10-11-10-8---11-11-10-8-6-5-6---11-10-8-6-6-----|
D | -------------6-----------------------------------------------------------|
A | -------------------------------------------------------------------------|
E | -------------------------------------------------------------------------|

Play this whole thing 3 times for the 3 verses.
Have fun and have a Merry Christmas.
Tap to rate this tab
# A B C D E F G H I J K L M N O P Q R S T U V W X Y Z