Song name
# A B C D E F G H I J K L M N O P Q R S T U V W X Y Z

Misc Christmas - O Christmas Tree tab

I hope this is right because I was taught it by someone but I'm pretty sure it's right. 
So here goes nothing:

                  Intro/ Chorus

E---3-3-3---5--7-7-7--7-5-7-8--2--5---3-----|
B-3-----------------------------------------|
G-------------------------------------------|
D-------------------------------------------| (x2)
A-------------------------------------------|
E-------------------------------------------|

                       Verse 1

E-10-10-----12----10-10-8-8---8-8----10---8-8-7-7----|
B--------12-----------------------10-----------------|
G----------------------------------------------------|
D----------------------------------------------------|
A----------------------------------------------------|
E----------------------------------------------------|

(Intro/ Chorus including x2)

(Verse 1)

(Intro/ Chorus)
Tap to rate this tab
 
# A B C D E F G H I J K L M N O P Q R S T U V W X Y Z