Song name
# A B C D E F G H I J K L M N O P Q R S T U V W X Y Z

Misc Christmas - Away In A Manger tab

Away in a manger

E--------------------------------------------------------------------------|
B--10--10------------------------------------------------------------------|
G-----------12-11-11-9------------------------------------9------------11--|
D-----------------------12-12-11-9--------------9-----------11-9-----12----|
A-----------------------------------12----12-12---12-12-----------12-------|
E--------------------------------------------------------------------------|


E---------------------------------------------------------------------|
B--10--10----------------------------------------------8-10-----------|
G----------12-11-11-9---------------------12-11-9-11-9-------9-11-12--|
D----------------------12-12-11-9-------------------------------------|
A---------------------------------12---12-----------------------------|
E---------------------------------------------------------------------|

And repeat for the other verses


Tabbed by Mowgli1 please rate
Tap to rate this tab
 
# A B C D E F G H I J K L M N O P Q R S T U V W X Y Z