Song name
# A B C D E F G H I J K L M N O P Q R S T U V W X Y Z

Misc Christmas - Sydmeeni Joulun Teen tab

-----------------------------------------------------------------------------
			     Sydämeeni joulun teen
-----------------------------------------------------------------------------
Tabbed by: ignoramus_
Email: ignoramus-@luukku.com


e|-----------------------0-0------------------------------------------------|
B|-------1---0-0-3-0-1-3-----------0-1-1-1-1-0-0----------------------------|
G|---2-2---2-----------------2-------------------2--------------------------|
D|-2-----------------------------------------------3-2-2--------------------|
A|--------------------------------------------------------------------------|
E|--------------------------------------------------------------------------|

e|-----------------------0-0------------------------------------------------|
B|-------1---0-0-0-3-1-3-----------0-1-1-1-1-0-0----------------------------|
G|---2-2---2-----------------2---------------------1-2-2--------------------|
D|-2---------------------------------------------2--------------------------|
A|--------------------------------------------------------------------------|
E|--------------------------------------------------------------------------|

chorus:
e|-0-0-1-0----------0-1-1-1-1-0----0-0--------------------------------------|
B|---------3-1-0-----------------------3---0-1-1-0-0------------------------|
G|---------------2-----------------------2-----------2----------------------|
D|--------------------------------------------------------------------------|
A|--------------------------------------------------------------------------|
E|--------------------------------------------------------------------------|
Tap to rate this tab
 
# A B C D E F G H I J K L M N O P Q R S T U V W X Y Z