Song name
# A B C D E F G H I J K L M N O P Q R S T U V W X Y Z

Misc Christmas - God Rest Ye Merry Gentlemen tab

God Rest Ye Merry Gentlemen

I've added bass notes in on the lower strings and it sounds much better but it you 
find it to hard just play the top note
also the spaces don't represent the time between notes you'll just have to figure 
that out yourself 
Merry Christmas everybody :)



e|-------------------------------------------------------------------------|
B|------------0---0---------------------------------0----------------------|
G|--------------------2--0-------------------0--2--------------------------|
D|----2---2-----------------4--2--0---2---4--------------------------------|
A|------------------------------------3------3------2----------------------|
E|--------0-------0------0-------------------------------------------------|

e|-------------------------------------------------------------------------|
B|------------0---0---------------------------------0----------------------|
G|--------------------2--0-------------------0--2--------------------------|
D|----2---2-----------------4--2--0---2---4--------------------------------|
A|------------------------------------3------3------2----------------------|
E|--------0-------0------0-------------------------------------------------|

e|-----------------------0-------------------------------------------------|
B|--0---1------0--1---3-----0---------------------------------0---1---0----|
G|---------2-------------------2--0-----------0---2----0--2----------------|
D|------------------------------------2---4-------2------------------------|
A|------0------0------2-----2-----3-------4--------------------------------|
E|------------------------------------------------------------3---3--------|

e|-----------------------------------------------------------0-------------|
B|---0---------------------------------------------0---1--3-----0----------|
G|-------2---0-------------0---------2-----0---2----------------------2----|
D|-----------------4---2-------4--2--0-----0-------------------------------|
A|---2-------2-------------------------------------------------------------|
E|---------------------0---0-----------------------3------3-----2----------|

e|-------------------------------------------------------------------------|
B|-------------------------------------------------------------------------|
G|---0---------------------------------------------------------------------|
D|-------4---2-------------------------------------------------------------|
A|---2---------------------------------------------------------------------|
E|-----------0-------------------------------------------------------------|
Tap to rate this tab
# A B C D E F G H I J K L M N O P Q R S T U V W X Y Z