Song name
# A B C D E F G H I J K L M N O P Q R S T U V W X Y Z

Misc Christmas - Jingle Bell Rock tab

                             JINGLE BELL ROCK- Miscellaneous
----------------------------------------------------------------------------
Tabbed by:andersstruve
E-mail: andersstruve@hotmail.com

Tuning: Standard




intro:
e--14-14-14--14-14-14-----17---------------------------------------|
B--15-15-15--14-14-14--15----15-17--17b-15--12---------------------|
G------------------------------------------------------------------|
D------------------------------------------------------------------|
A------------------------------------------------------------------|
E------------------------------------------------------------------|
   (chorus)
e------------------------------------------------------------------|
B--3-3-3--2-2-2----2---------2------------2------------------------|
G----------------4---4-----4---4-----2--4---4---------0--2--4--2---|
D----------------------4---------4------------5---2-4--------------|
A------------------------------------------------------------------|
E------------------------------------------------------------------|

e------------------------------------------------------------------|
B------------------------------------------------------------------|
G--------0--2-----4/3/4/3/4-4--------------------------------------|
D--2--4-----------------------3---(go to chorus w/tab)-------------|
A------------------------------------------------------------------|
E------------------------------------------------------------------|

   chorus                                    (solo ((first time)   ~
e------------------------------------------------------------------|
B--3-3-3--2-2-2----2---------2-------------------33-55-33----3--5--|
G----------------4---4----4-----4-----2--4----44-----------33------|
D----------------------4-----------4-------------------------------|
A------------------------------------------------------------------|
E------------------------------------------------------------------|

    ~          ~          ~          ~          ~          ~
e------------------------------------------------------------------|
B--3----2-------3----2-------3---2-3-5-3----33--5--3---3--5--3-----|
G----4----4-2-----4----4-2-----4---------------------4-------------|
D------------------------------------------------------------------|
A------------------------------------------------------------------|
E------------------------------------------------------------------|
    ~          ~         ~          ~          ~          ~)
e------------------------------------------------------------------|
B--33--2--0--------33--5--3---3--5--3------------------------------|
G------------2--------------4------------22--4444--6--4--2---------|
D---------------4--------------------------------------------------|
A------------------------------------------------------------------|
E------------------------------------------------------------------|
(repeat chorus)
e------------------------------------------------------------------|
B--3-3-3--2-2-2----2---------2------------2------------------------|
G----------------4---4-----4---4-----2--4---4---------0--2--4--2---|
D----------------------4---------4------------5---2-4--------------|
A------------------------------------------------------------------|
E------------------------------------------------------------------|

e------------------------------------------------------------------|
B-----------------------------------3-3-3--2-2-2----2----------2---|
G--------0--2-----4/3/4/3/4-4---------------------4---4------4---4-|
D--2--4-----------------------3--------------------------4---------|
A------------------------------------------------------------------|
E------------------------------------------------------------------|

e------------------------------------------------------------------|
B------------------------------------------------------------------|
G----2--4--- ~(skip this empty space, go to solo ~~~~~~~~~~~~~~~)--|
D-4----------------------------------------------------------------|
A------------------------------------------------------------------|
E------------------------------------------------------------------|

solo (second time):~
e------------------------------------------------------------------|
B-----------15-15---17-17---15-15-------------17-------------------|
G---16-16-------------------------15-15---19-------19-16-18-16-14--|
D------------------------------------------------------------------|
A------------------------------------------------------------------|
E------------------------------------------------------------------|

e------------------------------------------------------------------|
B------------------------------17--15------------------------------|
G-19-16-18-16-14---19-16-18-19-----------19-19-19b(21)--19--16--19-|
D------------------------------------------------------------------|
A------------------------------------------------------------------|
E------------------------------------------------------------------|

e------------------------------------------------------------------|
B------------------------------------------------------------------|
G-19b-19---19-18-16-14-11/---19-19-19b(21)--19--16--19-19b-19------|
D------------------------------------------------------------------|
A------------------------------------------------------------------|
E------------------------------------------------------------------|
                         ~)  repeat chorus final time
e------------------------------------------------------------------|
B------------------------------------------------------------------|
G--1414--16161616-18-16-14-----------------------------------------|
D------------------------------------------------------------------|
A------------------------------------------------------------------|
E------------------------------------------------------------------|

Enjoy! E-mail above, so dont hesitate to shoot me one if you don't understand anything 
or have concerns/disputes with tab.
I didn't tab the chords in this link(courtesy of Zkittlez), but as far as my ear can 
tell I tabbed this to match with these chords in case you wanted a duo.
http://tabs.ultimate-guitar.com/m/misc/jingle_bell_rock_crd.htm
Tap to rate this tab
# A B C D E F G H I J K L M N O P Q R S T U V W X Y Z