Song name
# A B C D E F G H I J K L M N O P Q R S T U V W X Y Z

Misc Christmas - White Christmas tab

-----------------------------------------------------
                             WHITE CHRISTMAS
-----------------------------------------------------

Tabbed by: JW
E-mail: basis2000@emailn.de

Tuning: Standard

e-----------------------------10--------------------|
B---------------7-8--10-12-13----13-12-10-----------|
G-9-10-9-8-9-10---------------------------12--------|
D---------------------------------------------------|
A---------------------------------------------------|
E---------------------------------------------------|

e---------------------------------------------------|
B-------------10------------------------------------|
G-------9-9-9----12----------12--10-9-10-9----------|
D-10-12-------------10-10-10---------------12-10-12-|
A---------------------------------------------------|
E---------------------------------------------------|

e-----------------------------10--------------------|
B---------------7-8--10-12-13----13-12-10-----------|
G-9-10-9-8-9-10---------------------------12--------|
D---------------------------------------------------|
A---------------------------------------------------|
E---------------------------------------------------|

e------------------8--------------------------------|
B-----------10-8-8--------------10------------------|
G-------9-9-----------------9-9---------------------|
D-10-12---------------10-12--------9-9-9-10---------|
A---------------------------------------------------|
E---------------------------------------------------|

*****************************************************

| /   slide up
| \   slide down
| h   hammer-on
| p   pull-off
| ~   vibrato
| +   harmonic
| x   Mute note
| b   Bend
| pb  Pre-bend
| br  Bend release
| pbr Pre-bend release
| brb Bend release bend

*****************************************************
Tap to rate this tab
 
# A B C D E F G H I J K L M N O P Q R S T U V W X Y Z