Song name
# A B C D E F G H I J K L M N O P Q R S T U V W X Y Z

Misc Christmas - O Come O Come Emmanuel tab

O Come O Come Emmanuel

Key: Eb

Tuning: Standard (EADGBe)

e|--------------------------------------------------------------------------|
B|--------------------------------------------------------------------------|
G|---------12-12-12-10-13-12-10-------10-12----------10---------------------|
D|--13-13-----------------------13----------13-10-13----12-10-8-10----------|
A|--------------------------------------------------------------------------|
E|--------------------------------------------------------------------------|

e|--------------------------------------------------------------------------|
B|--------------------------------------------------------------------------|
G|-------------------------------------12-12-12-10-13-12-10-----------------|
D|--15-15-10-10-12-13-12-10-8----12-13----------------------13--------------|
A|--------------------------------------------------------------------------|
E|--------------------------------------------------------------------------|

e|--------------------------------------------------------------------------|
B|--------------------------------------------------------------------------|
G|--15-15----12-12----12-10-13-12-10-------10-12----------10----------------|
D|-----------------------------------13----------13-10-13----12-10-8-10-----|
A|--------------------------------------------------------------------------|
E|--------------------------------------------------------------------------|

This is my first tab, it is a pretty fun tab to play, not super complicated.
Also, if you're looking for a bit of a rock sound, a little distortion on this lead sounds great.
Tap to rate this tab
# A B C D E F G H I J K L M N O P Q R S T U V W X Y Z