Song name
# A B C D E F G H I J K L M N O P Q R S T U V W X Y Z

Misc Christmas - Still Still Still chords

Highlighted       Show chord diagrams
---------------------------------------------------------------------------
                Still, Still, Still 
---------------------------------------------------------------------------
Tabbed by: maguri
Tuning: Standard

Still, Still, Still 
(Traditional Austrian melody)

---------------------------------------------------------------------------
CHORDS

          E-A-D-G-B-E
[ch]D#dim7[/ch]    x-x-1-2-1-2

---------------------------------------------------------------------------
  D       F#m7     Bm7              Em7     A7       D
  1 + 2 + 3 + 4 +  1 + 2 + 3 + 4 +  1 + 2 + 3 + 4 +  1 + 2 + 3 + 4 +
e|----------------|----------------|----------------|----------------|
B|----3-----------|----------------|----------------|----------------|
G|2-----------2---|----------------|------0---------|----------------|
D|--------4-------|0-----------0-4-|2---2---------2-|0-----------4---|
A|----------------|----------------|--------4---4---|----------------|
E|----------------|----------------|----------------|----------------|
  Em7     A7       D       [ch]D#dim7[/ch]   Em7     A7       D       Em7 A7
  1 + 2 + 3 + 4 +  1 + 2 + 3 + 4 +  1 + 2 + 3 + 4 +  1 + 2 + 3 + 4 +
e|----------------|----------------|----------------|----------------|
B|----------------|----------------|----------------|----------------|
G|--------0-------|------0-2-------|--------0-------|------0-2-------|
D|2---2-4-----2---|4---4-------4---|2---2-4-----2---|4---4-------4---|
A|----------------|----------------|----------------|----------------|
E|----------------|----------------|----------------|----------------|
  D       F#m7     Bm7              Em7     A7       D
  1 + 2 + 3 + 4 +  1 + 2 + 3 + 4 +  1 + 2 + 3 + 4 +  1 + 2 + 3 + 4 +
e|----------------|----------------|----------------|----------------|
B|----3-----------|----------------|----------------|----------------|
G|2-----------2---|----------------|------0---------|----------------|
D|--------4-------|0-----------0-4-|2---2---------2-|0---------------|
A|----------------|----------------|--------4---4---|----------------|
E|----------------|----------------|----------------|----------------|


---------------------------------------------------------------------------
ENGLISH LYRICS
---------------------------------------------------------------------------

D      F#m7   Bm7       Em7      A7      D
Still, still, still; to sleep is now his will
   Em7    A7        D        [ch]D#dim7[/ch]
On Mary’s breast He rests in slumber
Em7      A7      D       Em7 A7
While we pray in endless num-ber
D      F#m7   Bm7      Em7      A7      D
Still, still, still; to sleep is now his will

D       F#m7  Bm7          Em7    A7    D
Sleep, sleep, sleep; while we thy vigil keep
    Em7    A7        D      [ch]D#dim7[/ch]
And angels come from Heaven singing
Em7      A7  D      Em7 A7
Songs of jubilation bringing
D       F#m7  Bm7          Em7    A7    D
Sleep, sleep, sleep; while we thy vigil keep


Different translation:

Still, still, still, one can hear the falling snow.
For all is hushed, the world is sleeping,
Holy Star its vigil keeping.
Still, still, still, one can hear the falling snow.

Sleep, sleep, sleep, ’tis the eve of our Saviour’s birth.
The night is peaceful all around you,
Close your eyes, Let sleep surround you.
Sleep, sleep, sleep, ’tis the eve of our Saviour’s birth.

Dream, dream, dream, of the joyous day to come.
While guardian angels without number,
Watch you as you sweetly slumber.
Dream, dream, dream, of the joyous day to come.

Still, still, still, let baby sleep its fill,
The angels are all jubilating
By the manger, music making.
Still, still, still, let baby sleep its fill.


---------------------------------------------------------------------------
GERMAN LYRICS
---------------------------------------------------------------------------

D      F#m7   Bm7          Em7      A7       D
Still, still, still weil’s Kindlein schlafen will
    Em7     A7        D   [ch]D#dim7[/ch]
Die Englein tun schön jubilieren
Em7     A7        D   Em7 A7
Bei dem Kripplein musizie-ren
D      F#m7   Bm7          Em7      A7       D
Still, still, still weils Kindlein schlafen will

D       F#m7    Bm7         Em7    A7        D
Schlaf, schlaf, schlaf mein liebes Kindlein, schlaf
  Em7 A7     D     [ch]D#dim7[/ch]
Maria tut es niedersingen
Em7  A7      D        Em7 A7
Ihre keusche Brust darbringen
D       F#m7    Bm7         Em7    A7        D
Schlaf, schlaf, schlaf mein liebes Kindlein, schlaf

D     F#m7  Bm7       Em7       A7  D
Groß, groß, groß, die Lieb’ ist übergroß
Em7          A7     D        [ch]D#dim7[/ch]
Gott hat den Himmelsthron verlas-sen
Em7      A7     D       Em7 A7
Und muss reisen auf den Straßen
D     F#m7  Bm7       Em7       A7  D
Groß, groß, groß, die Lieb’ ist übergroß
Tap to rate this tab
# A B C D E F G H I J K L M N O P Q R S T U V W X Y Z