Song name
# A B C D E F G H I J K L M N O P Q R S T U V W X Y Z

Misc Christmas - Frosty The Snowman tab

E|--------------3--2--3--5--3--2--0-----2--3--5--3--2--0-----3--------0-----------------|
B|--3--0--1--3-----------------------3--------------------3-----0--3-----3--1--0-----3--|
G|--------------------------------------------------------------------------------2-----|
D|--------------------------------------------------------------------------------------|
A|--------------------------------------------------------------------------------------|
E|--------------------------------------------------------------------------------------|



E|--------------3--2--3--5--3--2--0-----2--3--5--3--2--0-----3--------0-----------------|
B|--3--0--1--3-----------------------3--------------------3-----0--3-----3--1--0--------|
G|--------------------------------------------------------------------------------2--0--|
D|--------------------------------------------------------------------------------------|
A|--------------------------------------------------------------------------------------|
E|--------------------------------------------------------------------------------------|



E|-----0--0--3--3--2--0-----------0--------------------------2--2--5--2h3--5--3--2--0-----|
B|-----------------------3--0--1-----3--1--0--0--------3--3----------------------------3--|
G|--0--------------------------------------------2--2-------------------------------------|
D|----------------------------------------------------------------------------------------|
A|----------------------------------------------------------------------------------------|
E|----------------------------------------------------------------------------------------|



E|-----------------3--2--3--5--3--2--0-----2--3--5--3--2--0-----3--------0-----------------|
B|--3--3--0--1--3-----------------------3--------------------3-----0--3-----3--1--0--------|
G|-----------------------------------------------------------------------------------2--0--|
D|-----------------------------------------------------------------------------------------|
A|-----------------------------------------------------------------------------------------|
E|-----------------------------------------------------------------------------------------|
Tap to rate this tab
# A B C D E F G H I J K L M N O P Q R S T U V W X Y Z