Song name
# A B C D E F G H I J K L M N O P Q R S T U V W X Y Z

Misc Christmas - Winter Wonderland tab

Intro:
G    G7    G    G7    C    G    C

Verse 1:

C    G   G7    G    G7    C    G    C

Verse 2:

---3--3--3-----3--3--0--3-----3--3--3----3--3--3--1--3----5/7--7--7--5--|
------------------------------------------------------------------------|
------------------------------------------------------------------------|
------------------------------------------------------------------------|
------------------------------------------------------------------------|
------------------------------------------------------------------------|



--5---------------------------------------------------------------------|
-----3--3--3--1----3/5--5--5--5--3--3--3--3--1--------------------------|
------------------------------------------------------------------------|
------------------------------------------------------------------------|
------------------------------------------------------------------------|
------------------------------------------------------------------------|


Bridge: (In the Meadow)

--------4--4--------5--5--4-------------4--4--------5--5--4-------------|
-----------------------------5------------------------------------------|
--4--4--------6--6----------------4--4--------6--6----------------------|
------------------------------------------------------------------------|
------------------------------------------------------------------------|
------------------------------------------------------------------------|



--------7--7--------8--8--7-----7--7--------5--5--------3---------------|
-----------------------------8--------5--5--------3--3------------------|
--7--7--------9--9------------------------------------------------------|
------------------------------------------------------------------------|
------------------------------------------------------------------------|
------------------------------------------------------------------------|

Verse 1

Bridge

Verse 2

Ending:
C    G7    C

C
Tap to rate this tab
# A B C D E F G H I J K L M N O P Q R S T U V W X Y Z