Song name
# A B C D E F G H I J K L M N O P Q R S T U V W X Y Z

Misc Christmas - O Christmas Tree tab

My interpretation of "O' Christmas Tree"
I am not completely sure of some parts, mainly the barred Am. 
Any improvements, feedback, or recommendations would be greatly appreciated.
-JRM

Standard: eBGDAE

|------------0-0-0---0---0-1----------|
|----1-1-1---1-1-1-----3---3-0-3-1-1--|
|--0-------3-0-0-0---------0----------|
|----2-2-2---------------------2------|
|----3-3-3---3-3-3-------------3------|
|-------------------------------------|

|------------0-0-0---0---0-1----------|
|----1-1-1---1-1-1-----3---3-0-3-1-1--|
|--0-------3-0-0-0---------0----------|
|----2-2-2---------------------2------|
|----3-3-3---3-3-3-------------3------|
|-------------------------------------|

|--3-3-0-5---3-3-1-1---1-1---3---1-1-0-0--|
|--------5---3-3-------3-3-3-3---0-----1--|
|--------5---2-2-------2-2---0---0-----2--|
|--------7-------------------0---0-----2--|
|--------7-------------------2---2-----0--|
|--------5-------------------3---3--------|

|------------0-0-0---0---0-1-------|
|----1-1-1---1-1-1-----3---3-0-1---|
|--0-------3-0-0-0---------0-------|
|----2-2-2---------------------2---|
|----3-3-3---3-3-3-------------3---|
|----------------------------------|
Tap to rate this tab
# A B C D E F G H I J K L M N O P Q R S T U V W X Y Z