Song name
# A B C D E F G H I J K L M N O P Q R S T U V W X Y Z

Misc Christmas - Carol Of The Bells tab

-------------------------------------------------------------------------------
                Carol of the Bells
-------------------------------------------------------------------------------
Tabbed by: ZafforTheGreat
Tuning: Standard

e|-----------------------------------------------------------------------------|
B|-----------------------------------------------------------------------------|
G|-----------------------------------------------------------------------------|
D|-----------------------------------------------------------------------------|
A|--3-2-3-0--3-2-3-0--3-2-3-0--3-2-3-0-----------------------------------------|
E|-----------------------------------------------------------------------------|

e|-----------------------------------------------------------------------------|
B|-----------------------------------------------------------------------------|
G|-----------------------------------------------------------------------------|
D|--2-0-2-----2-0-2----2-0-2----2-0-2------------------------------------------|
A|--------3----------3--------3----------3-------------------------------------|
E|-----------------------------------------------------------------------------|

e|-----------------------------------------------------------------------------|
B|-----------------------------------------------------------------------------|
G|-2-22-0----------------------------------------------------------------------|
D|----------3-2-22-0----0-00-2-0-----------------------------------------------|
A|----------------------3-------------3-2-3-0----------------------------------|
E|-----------------------------------------------------------------------------|

e|-----------------------------------------------------------------------------|
B|-----------------------------------------------------------------------------|
G|-----------------------------------------------------------------------------|
D|----------------0-2-0-------------------0-2-0--------------------------------|
A|---------0-2-3--------3---------0-2-3---------3------------------------------|
E|-0-2-3-------------------0-2-3-----------------------------------------------|

e|-----------------------------------------------------------------------------|
B|-----------------------------------------------------------------------------|
G|-----------------------------------------------------------------------------|
D|-----------------------------------------------------------------------------|
A|-3-2-3-0--3-2-3-0-3-2-3-0--3-2-3-0-------------------------------------------|
E|-----------------------------------------------------------------------------|
Tap to rate this tab
# A B C D E F G H I J K L M N O P Q R S T U V W X Y Z