Song name
# A B C D E F G H I J K L M N O P Q R S T U V W X Y Z

Misc Christmas - Jingle Bells tab

Hello :D
I'm Austin and this is my first tab.
I hope you like it

E----7-5-3-------------7-5-3--------8-7-5------10-10-8----7--------------------------|
B--3-------3----3-3-3--------5----5-------7------------10----------------------------|
G------------------------------------------------------------------------------------|
D------------------------------------------------------------------------------------|
A------------------------------------------------------------------------------------|
E------------------------------------------------------------------------------------|


E----7-5-3--------7-5-3----------8-7-5-10-10-10-10-12-10-8--------10-------------------|
B--3-------3----3-------5----5-5---------------------------10-8------------------------|
G--------------------------------------------------------------------------------------|
D--------------------------------------------------------------------------------------|
A--------------------------------------------------------------------------------------|
E--------------------------------------------------------------------------------------|
Tap to rate this tab
# A B C D E F G H I J K L M N O P Q R S T U V W X Y Z