Song name
# A B C D E F G H I J K L M N O P Q R S T U V W X Y Z

Misc Christmas - Petit Papa Noel tab

|-------------------------------------------------------------------------------------------|
|-------------------------- 7--7--7--8--7---------------------------------------------------|
|---7--7--7--9--7----7--9------------------9--7---7--7--7----------------------7----7--7----|
|-7-------------------------------------------------------------11--9--7----7--7------------|
|-------------------------------------------------------------------------------------------|
|-------------------------------------------------------------------------------------------|

|-------------------------------------------------------------------------------------------|
|-------------------------------------------------------------------------------------------|
|-9--9--7--------------------------------------------------7--7--7--7--7---6--7--9---10--10-|
|---------------9--9--9--9--9----9--11--12---9--9--7----------------------------------------|
|-------------------------------------------------------------------------------------------|
|-------------------------------------------------------------------------------------------|

|--------------------------------------------------------------5----------------------------|
|----------------------------------------6---6--6--8---8--8---------------------------------|
|--10--10--10----9--10--12--9--7--5--------------------------------7--7--7--9--7----7--9----|
|-------------------------------------------------------------------7-----------------------|
|-------------------------------------------------------------------------------------------|
|-------------------------------------------------------------------------------------------|

|-----------------------------------------------------------------------|
|--7--7--7--8--7--------------------------------------------------------|
|------------------9--7---7--7--7---------------------7---7--7--9--9--7-|
|----------------------------------11--9--7-----7--7--------------------|
|-----------------------------------------------------------------------|
|-----------------------------------------------------------------------|
Tap to rate this tab
# A B C D E F G H I J K L M N O P Q R S T U V W X Y Z