Song name
# A B C D E F G H I J K L M N O P Q R S T U V W X Y Z

Misc Christmas - Es Kommt Ein Schiff Geladen tab

---------------------------------------------------------------------------
                Es kommt ein Schiff, geladen
---------------------------------------------------------------------------
Tabbed by: maguri
Tuning: Standard

Es kommt ein Schiff, geladen

Melody: Andernacher Gesangbuch (Andernach Hymns), 1608
Lyrics: Daniel Sudermann, Straßburg (1626)

A beautiful Advent season chorale and Marian Hymn; one of the oldest 
religious songs of German origin. 

---------------------------------------------------------------------------
      [6/4]
       Dm          C            F
       1 + 2 + 3 + 4 + 5 + 6 +  1 + 2 + 3 + 4 + 5 + 6 + 
e ----|------------------------|------------------------|
B ----|------------------------|------------------------|
G ----|------------------------|----0---2---2-------2---|
D 0---|0-------0---2-------2---|3-----------------------|
A ----|------------------------|------------------------|
E ----|------------------------|------------------------|
                          [5/4]
  C           Bb      C    F
  1 + 2 + 3 + 4 + 5 + 6 +  1 + 2 + 3 + 4 + 5 + 
e|------------------------|--------------------|
B|------------------------|--------------------|
G|0-------0---------------|--------------------|
D|------------0-------2---|3---------------3---|
A|------------------------|--------------------|
E|------------------------|--------------------|
 [4/4]
  F       Bb       F          C/E   F   C   Dm  A    D
  1 + 2 + 3 + 4 +  1 + 2 + 3 + 4 +  1 + 2 + 3 + 4 +  1 + 2 + 3 + 4 +
e|----------------|----------------|----------------|----------------|
B|----1---3---3---|1---------------|----------------|----------------|
G|2---------------|--3-2-0-----0---|2---0-----------|----------------|
D|----------------|--------3-------|--------3---2---|0---------------|
A|----------------|----------------|----------------|----------------|
E|----------------|----------------|----------------|----------------|

---------------------------------------------------------------------------
CHORDS / SPECIAL VOICINGS

     E-A-D-G-B-e
C/E  x-x-2-0-1-0

---------------------------------------------------------------------------

1.
   Dm        C         F
Es kommt ein Schiff, geladen
    C        Bb   C   F
bis an sein’ höchsten Bord,
      F      Bb        F
trägt Gottes Sohn voll Gnaden,
C/E F C    Dm A    D
des Vaters e--wigs Wort.

2.
    Dm          C        F
Das Schiff geht still im Triebe,
   C         Bb C  F
es trägt ein teure Last;
    F     Bb      F
das Segel ist die Liebe,
C/E F  C   Dm    A   D
der Heilig Geist der Mast.

3.
    Dm    C         F
Der Anker haft’ auf Erden,
   C        Bb    C  F
da ist das Schiff am Land.
    F         Bb          F
Das Wort will Fleisch uns werden,
C/E F    C   Dm  A D
der Sohn ist uns gesandt.

4.
   Dm    C     F
Zu Bethlehem geboren
   C         Bb C F
im Stall ein Kindelein,
     F        Bb     F
gibt sich für uns verloren;
C/E F C   Dm   A  D
ge--lobet muss es sein.
Tap to rate this tab
 
# A B C D E F G H I J K L M N O P Q R S T U V W X Y Z