Song name
# A B C D E F G H I J K L M N O P Q R S T U V W X Y Z

Misc Christmas - Youre A Mean One Mr Grinch tab

Standard Tunning

A more metal style of The Grinch

e-------------------------------------------|
B-------------------------------------------|
G-------------------------------------------|
D------1--------1------------1-----3---5----|
A--2-4--------2---4~4----2-4----------------|
E--------4~--------------------4-4---4------|

e----------------------------------------|
B----------------------------------------|
G------2--------------0------------------|
D--2-2---5-3-2-3--0-0---3-2-0-2-----2----|
A---------------------------------2------|
E-------------------------------------4--|



Feel free to make this tab better because I know it's not 100% correct.
Tap to rate this tab
# A B C D E F G H I J K L M N O P Q R S T U V W X Y Z