Song name
# A B C D E F G H I J K L M N O P Q R S T U V W X Y Z

Misc Christmas - Blue Christmas Acoustic tab

bLuE cHrIsTmAs!!!!!
Tabbed by: guitargrlv
guitargrlv@hotmail.com

e|---1-3-5---5-3---1-0-3-----1-3-6-6-6-5-3-1-5---5-6-8-6-5-8---6-5-3-3-5-6-|
B|-1-----------------------1-----------------------------------------------|
G|-------------------------------------------------------------------------|
D|-------------------------------------------------------------------------|
A|-------------------------------------------------------------------------|
E|-------------------------------------------------------------------------|

i don't know this part


e|---1-3-5---5-3---1-0-3-----1-3-6-6-6-5-3-1-5---5-6-8-6-5-8---6-5-3-5-6-10-|
B|-1-----------------------1------------------------------------------------|
G|--------------------------------------------------------------------------|
D|--------------------------------------------------------------------------|
A|--------------------------------------------------------------------------|
E|--------------------------------------------------------------------------|

e|-0-0-1-3---5-5-5-3-1-----------------------------------------------------|
B|--1----------------------------------------------------------------------|
G|-------------------------------------------------------------------------|
D|-------------------------------------------------------------------------|
A|-------------------------------------------------------------------------|
E|-------------------------------------------------------------------------|
Tap to rate this tab
# A B C D E F G H I J K L M N O P Q R S T U V W X Y Z