Song name
# A B C D E F G H I J K L M N O P Q R S T U V W X Y Z

Misc Christmas - Oh Chrismas Tree tab

Also, Oh Tannenbaum if you're into German stuff. I'm just correcting a few small errors 
the other Oh Christmas Tree I saw.


Oh Christmas Tree/Oh Tannenbaum

         C                                               D7
e|------|-----------------------|-----------------------|--------------------|
B|------|-----------------------|-----------------------|--------------------|
G|------|-----------------------|-----------------------|--------------------|
D|------|---5----5---5------7---|--9----9----9-------9--|--7--9--------------|
A|--5---|-----------------------|-----------------------|--------------------|
E|------|-----------------------|-----------------------|--------------------|
    O    Christ-mas Tree    o    Christ-mas Tree    how  love-ly

e|-------------|-------------------------------------------------------------|
B|-------------|-------------------------------------------------------------|
G|-------------|-------------------------------------------------------------|
D|--10---------|--7----5-----------------------------------------------------|
A|--------9----|-------------------------------------------------------------|
E|-------------|-------------------------------------------------------------|
   Are   your   branch-es  (x2)

           C                   D7
e|-------|-------------------|--------------------------|--------------------|
B|-------|-------------------|--------------------------|--------------------|
G|---7---|----7-------9----7-|--7----5-----5---------5--|--5-------7---------|
D|-------|--------9----------|--------------------------|------7-------------|
A|-------|-------------------|--------------------------|--------------------|
E|-------|-------------------|--------------------------|--------------------|
    Your    shin-ing star and twink-ling lights     They gent-ly glow

           G
e|--------|------------------------------------------------------------------|
B|--------|------------------------------------------------------------------|
G|---5----|-5---4----4-------------------------------------------------------|
D|--------|------------------------------------------------------------------|
A|--------|------------------------------------------------------------------|
E|--------|------------------------------------------------------------------|
   Through-out the night

         C                                               D7
e|------|-----------------------|-----------------------|--------------------|
B|------|-----------------------|-----------------------|--------------------|
G|------|-----------------------|-----------------------|--------------------|
D|------|---5----5---5------7---|--9----9----9-------9--|--7--9--------------|
A|--5---|-----------------------|-----------------------|--------------------|
E|------|-----------------------|-----------------------|--------------------|
    O    Christ-mas Tree    o    Christ-mas Tree    how  love-ly

e|-------------|-------------------------------------------------------------|
B|-------------|-------------------------------------------------------------|
G|-------------|-------------------------------------------------------------|
D|--10---------|--7----5-----------------------------------------------------|
A|--------9----|-------------------------------------------------------------|
E|-------------|-------------------------------------------------------------|
   Are   your   branch-es
Tap to rate this tab
 
# A B C D E F G H I J K L M N O P Q R S T U V W X Y Z