Song name
# A B C D E F G H I J K L M N O P Q R S T U V W X Y Z

Misc Christmas - Hark The Harold Angels Sing tab

-----------------------------------------------------------------------------
			     Hark The Harold Angels Sing - Christmas
-----------------------------------------------------------------------------
Tabbed by: Chris Titus
Email: Eaglestalon101@yahoo.com

Tuning: Standard

I was in the Christmas mood and decided to look up Hark The Harold Angels Sing because
I was too lazy to play the song myself. The other tabs didn't seem good, but at least
they tried.  I think this is right, I haven't heard this song in ages, but I believe
this works, you can spice it up with some power chords or something...And this is my
first tab, so it's fairly simple.

e|-----------2-2-0--5-5-5-3-2-0-2-|----------2-2-0-5-0-0--------------|
B|---3-3-2-3----------------------|--3-3-2-3-------------3-2-0--------|
G|-2------------------------------|2---------------------------2------|
D|--------------------------------|-----------------------------------|
A|--------------------------------|-----------------------------------|
E|--------------------------------|-----------------------------------|

e|-5-5-5---3-2-2-0--5-5-5---3-2-2-0|
B|-------3----------------3--------|
G|---------------------------------|
D|---------------------------------|
A|---------------------------------|
E|---------------------------------|

e|-7-7-7-5-3-2-3--0-2-3-5-0-0-2-|
B|-----------------------------3|
G|------------------------------|
D|------------------------------|
A|------------------------------|
E|------------------------------|   x2







| /  slide up
| \  slide down
| h  hammer-on
| p  pull-off
| ~  vibrato
| +  harmonic
| x  Mute note
=============================================================================
Tap to rate this tab
# A B C D E F G H I J K L M N O P Q R S T U V W X Y Z