Song name
# A B C D E F G H I J K L M N O P Q R S T U V W X Y Z

Misc Christmas - Rudolf The Red Nosed Reindeer tab

|------------------------------------------------------------------------|
|--------1-----------------1-0---------0---------------------------------|
|0-2-0-------2-0-0-2-0-2-0-------0-------2-0---0-2-0-2-0-2---------------|
|------2-----------------------3---3-0---------------------2-------------|
|------------------------------------------------------------------------|
|------------------------------------------------------------------------|

|--------------------------------------------------------------------|
|--------1----------------1-0----------0----------------3-1----------|
|0-2-0-----2-0--0-2-0-2-0--------0-------2-0--0-2-0-2-0--------------|
|------2-----------------------3---3-0-------------------------------|
|--------------------------------------------------------------------|
|--------------------------------------------------------------------|

|--------------------------------------------------------------------|
|----1----------------------------0-0-0--1-1-0-----------------------|
|2-2---2-0---0---2-0------------1--------------2-0-------------------|
|----------2---3-----3-2--0-2-4--------------------3-0---------------|
|--------------------------------------------------------------------|
|--------------------------------------------------------------------|

|--------------------------------------------------------------------|
|--------1----------------1-0---------0----------------3-1-----------|
|0-2-0-----2-0--0-2-0-2-0-------0-------2-0--0-2-0-2-0---------------|
|------2----------------------3---3-0--------------------------------|
|--------------------------------------------------------------------|
|--------------------------------------------------------------------|

PLZ Rate!!!!!  Have Fun
Tap to rate this tab
# A B C D E F G H I J K L M N O P Q R S T U V W X Y Z