Guitaretab - guitar tabs
Song name
# A B C D E F G H I J K L M N O P Q R S T U V W X Y Z

Misc Christmas - Oh Come Oh Come Emmanuel tab

This is my rendition of O Come Emmanuel. You can make adjustments as you please. Merry 
and enjoy! Email for anything- vanallenjmarine@yahoo.co.uk


e|-------0--0----------0h1--0---------------------------0-------------|
B|----1--------1---3------------3---1------1------3---------1------1--|
G|----2----------------------------------2---2-------0---------2------|
D|----2--------------------------------2-------2----------------------|
A|-0--------3------2------------2---3-------------2-----3------0------|
E|--------------------------------------------------------------------|


e|----------------------------------------------------------------|
B|--3---0----------------1-------3--3-------------0----1----------|
G|----------2--0--2----2---2-----------0-------2----------0-------|
D|-------------------2-------2-----------0------------------2-----|
A|--2-------0-----0-----------------2------2---0-------3------3---|
E|------3------3----------------------------------3---------------|
[ Tab from: http://www.guitaretab.com/m/misc-christmas/99215.html ]
e|--------------------------------------0---0----------0h1--0---------|
B|-0h1p0----------------0-----------1----------1---3-----------3---1--|
G|------------2--1----1----1-----2---------------------------------2--|
D|------------------2--------2----------------------------------------|
A|- -------------2------------------0-------3------2---------------0--|
E|-3-------------------------0----------------------------------------|


e|-3--3------------0--0--------0-----0------0h1--0-------------------|
B|-3--3-------3----1--1------1---1-------3-----------3---1-----1-----|
G|-0--0-----0---0--2--2----2---------------------------------2---2---|
D|--------0--------------2---------------------------------2-------2-|
A|------2----------0--0--------------3---2-----------2---3-----------|
E|-3--3--------------------------------------------------------------|


e|----0---------------------------------------------------------------|
B|-3-----1-------1--3---1h3p1--0--------------------------------------|
G|----------2----------------------0--2-------------------------------|
D|------------------------------------2-------------------------------|
A|-2--3-----0-------2-----------------0-------------------------------|
E|-----------------------------3--------------------------------------|
Related for Oh Come Oh Come Emmanuel tab