Song name
# A B C D E F G H I J K L M N O P Q R S T U V W X Y Z

Misc Christmas - Dashing Through The Snowjingle Bells tab

e|-----0----------------------0----------------------|
B|-------3--1---------------------3--1---------------|
G|---0----------0-------0--0-------------2----2---2--|
D|---------------------------------------------------|
A|---------------------------------------------------|
E|---------------------------------------------------|

e|-1---0------------------|
B|---------3---0----------|
G|------------------------|
D|------------------------|
A|------------------------|
E|------------------------|

e|--3--3---1---------0--------------0----------------|
B|--------------3----------------------3---1---------|
G|-------------------------0-----0-------------0-----|
D|---------------------------------------------------|
A|---------------------------------------------------|
E|---------------------------------------------------|

e-------------0-----------|
B----------------3---1----|
G---0-----0-------------2-|
D-------------------------|
A-------------------------|
E-------------------------|

e|-----1---0------3--3--3--3--5--3----1------------3-|
B|------------3--------------------------3----1------|
G|-2-------------------------------------------------|
D|---------------------------------------------------|
A|---------------------------------------------------|
E|---------------------------------------------------|

e|0--0--0---0---0--0---0--3-----------1--1--1--1-1--0|
B|---------------------------1--3--5-----------------|
G|---------------------------------------------------|
D|---------------------------------------------------|
A|---------------------------------------------------|
E|---------------------------------------------------|

e|0--0-0--0--------0----3--0--0--0--0--0--0--0--3---------|
B|-----------3--3-----3----------------------------1--3--5|
G|--------------------------------------------------------|
D|--------------------------------------------------------|
A|--------------------------------------------------------|
E|--------------------------------------------------------|

e|1--1--1--1-1--0--0--0-0--3--3--1------------------------|
B|----------------------------------3--1------------------|
G|--------------------------------------------------------|
D|--------------------------------------------------------|
A|--------------------------------------------------------|
E|--------------------------------------------------------|
Tap to rate this tab
# A B C D E F G H I J K L M N O P Q R S T U V W X Y Z