Song name
# A B C D E F G H I J K L M N O P Q R S T U V W X Y Z

Misc Classical - Romance Anonimo tab

Tabbed by:Josh Walker
Email:skateboarderj@gmail.com
Tuning:EADGBE

        
e|--7--------7--------7--------7--------5--------3---------------|
B|-----0--------0--------0--------0--------0--------0------------|
G|--------0--------0--------0--------0--------0--------0---------|
D|---------------------------------------------------------------|
A|---------------------------------------------------------------|
E|--0--------------------------0---------------------------------|

e|--3--------2--------0--------0--------3--------7---------------|
B|-----0--------0--------0--------0--------0--------0------------|
G|--------0--------0--------0--------0--------0--------0---------|
D|---------------------------------------------------------------|
A|---------------------------------------------------------------|
E|--0--------------------------0---------------------------------|

e|--12-------12--------12--------12--------10--------8-----------|
B|-----0---------0---------0---------0---------0--------0--------|
G|--------0---------0---------0---------0---------0--------0-----|
D|---------------------------------------------------------------|
A|---------------------------------------------------------------|
E|--0----------------------------0-------------------------------|

e|--8--------7--------5--------5--------7--------8---------------|
B|-----5--------5--------5--------5--------5--------5------------|
G|--------5--------5--------5--------5--------5--------5---------|
D|---------------------------------------------------------------|
A|---------------------------------------------------------------|
E|--0--------------------------0---------------------------------|

e|--7--------8--------7--------11--------8--------7--------------|
B|-----7--------7--------7---------7--------7--------7-----------|
G|--------8--------8--------8---------8--------8--------8--------|
D|---------------------------------------------------------------|
A|---------------------------------------------------------------|
E|--7--------------------------7---------------------------------|

e|--7--------5--------3--------3--------2--------0---------------|
B|-----0--------0--------0--------0--------0--------0------------|
G|--------0--------0--------0--------0--------0--------0---------|
D|---------------------------------------------------------------|
A|---------------------------------------------------------------|
E|--0--------------------------0---------------------------------|

e|--2--------2--------2----------2--------3--------2-------------|
B|-----0--------0--------0----------0--------0--------0----------|
G|--------0--------2--------2----------2--------2--------2-------|
D|-------------------------------1-------------------------------|
A|---------------------------------------------------------------|
E|--2------------------------------------------------------------|

e|--0--------0--------0--------0---------------------------------|
B|-----0--------0--------0---------------------------------------|
G|--------0--------0--------0------------------------------------|
D|--2------------------------------------------------------------|
A|-----------2---------------------------------------------------|
E|-----------------------------0---------------------------------|
Tap to rate this tab
 
# A B C D E F G H I J K L M N O P Q R S T U V W X Y Z