Song name
# A B C D E F G H I J K L M N O P Q R S T U V W X Y Z

Misc Comp Games - Super Mario Underworld tab

Super Mario Bros. Underworld

Drop D Tuning: D A D G B E

\= Slide Down

This is 100% correct
e:----------------------------------------
B:---------------------------------------
G:--------------------------------------
D:---10---7---8---3---0---1-------------
A:--------------------------6\5\4\3-6-5--
D:10----7---8---3---0---1-----------------

e:----------------------------------------
B:---------------------------------------
G:--------------------------------------
D:--------4\3\2-8\7\6-------------------
A:----4-3-------------3\2\1\0------------
D:6-5-------------------------6-----------

If you have any questions or comments e-mail DumbPunk@verizon.net
Tap to rate this tab
# A B C D E F G H I J K L M N O P Q R S T U V W X Y Z