Song name
# A B C D E F G H I J K L M N O P Q R S T U V W X Y Z

Misc Computer Games - Street Fighter - All Themes tab

World Warrior Arcade Introduction
E:-------------------------- --------------?-0-3----|
b:-------------------------- ----------?-3-------3--|
g:-------------------------- ------3----------------|
d:--0-0--0-0-----0-0-------- --6-4---2--------------|
a:-----------3-3------1-3-0- -----------------------|
e:-------------------------- -----------------------|

Character Select
E:------------------------------- -------------------------9-12-10-9-----|
b:------------------------------- ----10-12---10-12---7-10-----------10--|
g:------------------------------- ---------------------------------------|
d:------------------------------- ----4--4----4--4-----------------------|
a:--0--3-5-3-4-5--1-3-4-5-4-3-1-- ---------------------------------------|
e:------------------------------- ---------------------------------------|

Ryu v1 / Japan South
e:------------------------------- ----------------------------------------|
b:------------------------------- ----------------------------------------|
g:------------------------------- ----------------------------------------|
d:-------------------3----------- -0---0-2-3-5--3p2-3--0--2---3-5-0----/8-|
a:-5---3-3-5---3-3-5-----5--3-0-- -----------------------------------3----|
e:------------------------------- ----------------------------------------|

Ryu v2
E:--------------------------------------8------------------------------------|
B:-0-3-5--5-7-8-10--8-7-8-5-7--8-10-5------10-8-7-5-7-5-5--5-7-8-10-8-10-10--|
G:------------------------------------7--------------------------------------|
D:---------------------------------------------------------------------------|
A:---------------------------------------------------------------------------|
E:---------------------------------------------------------------------------|

Edmond Honda / Japan North
E:---------- --------------------------|
b:---------- --------------------------|
g:---------- ----0------0-2-2-0--------|
d:---------- --2---2--2---------2-0-2--|
a:--0----0-- --------------------------|
e:-----3---- --------------------------|

Blanka / Brazil
E:--------------------- --------- ---------------3- --------|
b:--------------------- --------- -------1-3-1-3--- -3-1x-1-|
g:----0------------0--- -----0-2- -0-0-0----------- --------|
d:----1------------1--- -----1-3- ----------------- --------|
a:--3---3--3-3-3-3---3- -3-3----- ----------------- --------|
e:--------------------- --------- ----------------- --------|

Guile / SE USA
E:-------------------------------------------------------1--1-----------|
b:--4--4-3--3-4------3---4--4-3--3-4------3---4-3--4---3-------4---3----|
g:-------------------------------------------------------------------3--|
d:----------------------------------------------------------------------|
a:----------------------------------------------------------------------|
e:----------------------------------------------------------------------|

Ken / NE USA
------------------------------------------------------------------------|
------------------------------------------------------------------------|
------------3--1----0---------------------------3--1----0---------------|
-------3---------------3----1----3---------3---------------3----1----3--|
--3-----------------------------------3---------------------------------|
------------------------------------------------------------------------|
Ending by Felix Mendelssohn

Chun-Li / China
E:----0---------------------------------0-1-3-0-0---0-(0)-|
B:--3---3-1----1--------1-3-3p1h3-3p1h3-------0---3-------|
G:--2---2--0-2---0-2--2-----------------------------------|
D:--0---0----2-----2--------------------------------------|
A:--------------------------------------------------------|
e:--------------------------------------------------------|

Zangief / USSR.
E:----------- ----------------------|
b:----------- ----------------------|
g:----------- ----------------------|
d:--0-2-3-5-- ----------------------|
a:----------- --0-3-0--?---0-?------|
e:----------- ---------?-3---?-0-3--|

Dhalsim / India
E:------------------------------------------------------0-----0----------|
b:----3-5-3--------------0-2-0-----------0-2-0----0-1-------3---3--3-1---|
g:--2---5----2-2-----0-2---------2-2---2--------2-----2----------------2-|
d:---------------2-4---------------2-3-----------------------------------|
a:-----------------------------------------------------------------------|
e:-----------------------------------------------------------------------|

Super SF2: New Challengers (compose: Hiroaki Kondo, S Duckworth and N Baldwin)
Thunder Hawk / Mexico
E:----12----7-------------------------------------------7---------------------|
b:--6-8--10----6-5-3--5-6-5--2-3-5-5---3-0-1-3--5-6-6---6-6-5-3-5-6-5-2-3-5-5-|
g:----------------------------------------------------------------------------|
d:----------------------------------------------------------------------------|
a:----------------------------------------------------------------------------|
e:----------------------------------------------------------------------------|

Fei-Long / Hong Kong
------------------ --------------------------------------------------- ---------|
---------2~---(5)- -12--12-12--10-7---7--7--3--5--5--5--3--------7-10- 12-10-12-|
----2--4----4--2-- ---------------------------------------4--4-4------ ---------|
-2---------------- --------------------------------------------------- ---------|
------------------ --------------------------------------------------- ---------|
------------------ --------------------------------------------------- ---------|

Dee Jay / Jamaica
-4-3-1-3-1---------------------------------------------|
-5-3-1-3-5-0---3-1-0-3----0-1-5-3-1-1--0-0-3-3-1-0-3-5-|
-----------2-3-----------------------------------------|
--------------3----------------------------------------|
-----------------2----2----2---------------------------|
-----------------------2-------------------------------|
-------------0-03--2-2--0-3--0-0-----------------------|
-------------------------------------------------------|
-------------------------------------------------------|
-------------------------------------------------------|
--------------------------------3----------------------|
-------------------------------------------------------|

Cammy / England
E:--0----------1---------- --1--------1--2-1----------1-2---6-4-2-1--2-1--2-1---|
b:--0----------3---------- -------2-4---------2--4--4-----2-------------------4-|
g:--0----------2---------- -----3-----------------------------------------------|
d:------2-0-------------(0 -----------------------------------------------------|
a:----2-----0--2----(2-2)- -----------------------------------------------------|
e:--0------------3-0------ -----------------------------------------------------|

Boss
Balrog / W. USA
E:-------------- -----------3-1-0---|
b:-------------- -----1-3---------1-|
g:-------------- ---2---------------|
d:-------------- -3-----------------|
a:--0-0-0-0-0-0- -------------------|
e:-------------- -------------------|

Vega / Spain
E:------------------------------------- -----------------------|
b:------------------------------------- -----------------------|
g:------------------------------------- -----------------------|
d:------------------------------------- ---6~--5-3-1-----------|
a:-3-333-333-333-4-444-444-44-5-4-3--1- -3~----------4-2-3-4-3-|
e:------------------------------------- -----------------------|

Sagat / Thailand
E:---------------- -----------------------------------|
b:---------------- -----------------------------------|
g:-0-0-0-0-0-3---- --2-2---0--------------------------|
d:-------------3-- ------3---0-3---0--2-0-------------|
a:---------------- --------------3--------1-3---------|
e:---------------- ---------------------------1--1-3--|

M. Bison
E:--------- -------------------|
b:--------- -------------------|
g:--------- ----------0--------|
d:--2~-1~-- --0-2-0-2---4-0-2--|
a:--------- -------------------|
e:--------- -------------------|
Tap to rate this tab
# A B C D E F G H I J K L M N O P Q R S T U V W X Y Z