Song name
# A B C D E F G H I J K L M N O P Q R S T U V W X Y Z

Misc Computer Games - The Engineer tab

Hi, here a version of the song The Engineer by the Team Fortress 2 game. You can
find a video on youtube; http://www.youtube.com/watch?v=i68cEsALWt0

I missed the end of the song but the pattern is the same so find it lol i didn't
had the time to finish it but as you'll see, this is the same thing so.. looks like this:

==Team Fortress 2 - The Engineer==

Hey look body, i'm an engineer..
That means I solve problems..
e--------------------------------|
b---------2-2-2---2-2-2---2-2-2--|
g---------2-2-2---2-2-2---2-2-2--|
d---------2-2-2---2-2-2---2-2-2--| X2
a-------0---------------0--------|
E-0-2-4---------0----------------|

Not problems like "What is beauty"
because that would fall within the perview of your conundrums of philosophy.
e--------------------------------|
b---------2-2-2-----------2-2-2--|
g---------2-2-2-----------2-2-2--|
d---------2-2-2--2h4-2----2-2-2--|
a-------0---------------0--------|
E-0-2-4--------------------------|

			  I solve practical problems.
e-----------------------2--|S
b--2-2-2---2-2----------3--|T
g--2-2-2---2-2----------2--|O fire guns, drink beer.. "aaarrrghhh"
d--2-2-2---2-2--2h4-2------|P
a--------0-----------4-----|
E-0------------------------|

for instance how am I gonna stop some big mean mother hover
from tearing me a structurally superfluous new behind?
e-----------------------------------------------------------|
b----2-2-2---2-2-2----2-2-2---------------------------------|
g----2-2-2---2-2-2----2-2-2----------1-1-1---1-1-1---1-1-1--|
d----2-2-2---2-2-2----2-2-2--2-0-----2-2-2---2-2-2---2-2-2--|
a-0----------------0-------------4-2-2-2-2---2-2-2-2-2-2-2--|
E----------0-------------------------------0----------------|

	The answer....
e------------------------------------------------|
b---------2-2-2---2-2-2---2-2-2---2-2-2----2-2-2-|
g---------2-2-2---2-2-2---2-2-2---2-2-2----2-2-2-|
d---------2-2-2---2-2-2---2-2-2---2-2-2----2-2-2-|
a-------0---------------0----------------0-------|
E-0-2-4---------0---------------0----------------|

use a gun.
e----------------|
b----------2-2-2-|
g----------2-2-2-|
d-------0--2-2-2-|
a-0-2-4----------|
E----------------|

And if that don't work, use more gun.
Like this heavy caliber tripod little 'ol number,
designed by me, built by me.
And you best hope, not pointed at you.
Tap to rate this tab
# A B C D E F G H I J K L M N O P Q R S T U V W X Y Z