Song name
# A B C D E F G H I J K L M N O P Q R S T U V W X Y Z

Misc Computer Games - Soldat - Necromancide tab

E-----2--------5--2-----3--0--------------------|
H--0-----3--2--------3--------3---2--------2----|
G---------------------------------------3-------|     x2
D------------------------------------4----------|
A-----------------------------------------------|
E-----------------------------------------------|

E----2--1----------2--1-------------------------|
H-4--------2-----0-------2----------------------|
G-------------3---------------------------------|     x2
D-----------------------------------------------|
A-----------------------------------------------|
E-----------------------------------------------|


Keep smile with this song ;]
Pozdro!
Tap to rate this tab
# A B C D E F G H I J K L M N O P Q R S T U V W X Y Z