Song name
# A B C D E F G H I J K L M N O P Q R S T U V W X Y Z

Misc Computer Games - Castlevania - Bloody Tears tab

E||---5-3-1-0-1-0----0-1-3-1-0------0-----| 
B||-3---------------3-------------1---3---| 
G||---------------------------------------| 
D||---------------------------------------| 
A||---------------------------------------| 
E||---------------------------------------| x2

E||----8-5------------8-5----------8-5-----------5-6-8-5-6| 
B||-8----------8-6-8-------8-6-8-------------8------------| 
G||-------------------------------------------------------| 
D||-------------------------------------------------------| 
A||-------------------------------------------------------|
E||-------------------------------------------------------|

E||----8-5------------8-5----------8-5------| 
B||-8----------8-6-8-------8-6-8------------| 
G||-----------------------------------------| 
D||-----------------------------------------| 
A||-----------------------------------------|
E||-----------------------------------------|

E||-----5-6-8-5-7-9-12-12-10-12-10-12-10--|
B||-8-------------------------------------|
G||---------------------------------------|
D||---------------------------------------|
A||---------------------------------------|
E||---------------------------------------|

E||-13-12-10-9-12-10-12-10-12-10--13-15-12-10--|
B||--------------------------------------------|
G||--------------------------------------------|
D||--------------------------------------------|
A||--------------------------------------------|
E||--------------------------------------------|
Tap to rate this tab
# A B C D E F G H I J K L M N O P Q R S T U V W X Y Z