Song name
# A B C D E F G H I J K L M N O P Q R S T U V W X Y Z

Misc Computer Games - Wave Race 64 Theme tab

         ||Tinkling Sound||

E||--20-------------------------|
B||---------18-----20-----------|
G||----------------------17-----|
D||-----------------------------|
A||-----------------------------|
E||-----------------------------|
 
--20---------------------20--|-----20-----------------------|
---------18--20--------------|---------18-----20------------|
-------------------17--------|-----------------------17-----|
-----------------------------|------------------------------|
-----------------------------|------------------------------|
-----------------------------|------------------------------|

          
           
--20-------------------------|-------------------|-------------------|
---------18--20--------------|-------------------|-------------------|
--------------------17-------|-------------------|-------------------|
-----------------------------|-------------------|-------------------|
-----------------------------|-------------------|-------------------|
-----------------------------|-------------------|-------------------|

            ||Main Theme||

--------------------------|--------------------|-------------------|
--------------------------|--------------------|-------------------|
--------------------------|--------------------|-------------------|
--------------------------|--------------------|-------------------|
--------0--1-----1-----1--|-------3------------|-------------------|
--1--3--------------------|--------------------|-------------------|


               
----------------------------|----------------------------|-------------------|
-----------11----10------8--|-----10/11--10------/8---6~~|-------------------|
---------------------10-----|----------------------------|-------------------|
-------10-------------------|----------------------------|-------------------|
----------------------------|----------------------------|-------------------|
----------------------------|----------------------------|-------------------|


 
--------------------|----------------------------|---------------------8--8--|
--------------------|-----------11----10------8--|-----10--11--10------------|
--------------------|---------------------10-----|---------------------------|
--------------------|-------10-------------------|---------------------------|
--------------------|----------------------------|---------------------------|
--------------------|----------------------------|---------------------------|


  
---------------------------------|--------------------------|
-----11--10--11----10-----10-----|-----------8--------------|
----------------------12---------|-------12-----------------|
---------------------------------|--------------------------|
---------------------------------|--------------------------|
---------------------------------|--------------------------|

|=============================================================|

               
----------------------------|------------------13------|-------------------|
--------------8--10--10h11--|----------8---10-----13---|-------------------|
----------10----------------|--------------------------|-------------------|
----------------------------|--------------------------|-------------------|
----------------------------|--------------------------|-------------------|
----------------------------|--------------------------|-------------------|


-----------------------------|------------------------------|
--------------11--10---------|----8----------11--10------8--|
-------------------------10--|-----------------------10-----|
-----------------------------|-----------10-----------------|
-----------------------------|------------------------------|
-----------------------------|------------------------------|

          
---------------------------|-------------------|-------------------|
---------------------------|-------------------|-------------------|
--------------------10-----|-------------------|-------------------|
-----------10--------------|-------------------|-------------------|
---------------------------|-------------------|-------------------|
---------------------------|-------------------|-------------------|
Tap to rate this tab
 
# A B C D E F G H I J K L M N O P Q R S T U V W X Y Z