Song name
# A B C D E F G H I J K L M N O P Q R S T U V W X Y Z

Misc Computer Games - Dynasty Warriors - Struggle For Existence tab

Help us improve GuitareTab! Take a short survey!
LeeKyungWon's song for Dynasty Warriors

| /  slide up
| b  bend

E|-------------------------------------------------------------------------|
B|-------------------------------------------------------------------------|
G|--------------------------------5-------7b---6-8-------------------------|
D|--------5-------7-------9----------------9-------8-6----------5----------|
A|--7-5-7---7-5-7---7-5-7---7-5-7---7-5-7--------------8--7-5-7---7--------|
E|-------------------------------------------------------------------------|

E|-------------------------------------------------------------------------|
B|-----------------------------------12----------13----------15b---14-16---|
G|-----------12----------14------------------------------------16--------15|
D|--14-12-14----14-12-14----14-12-14----14-12-14----14-12-14---------------|
A|-------------------------------------------------------------------------|
E|-------------------------------------------------------------------------|

E|-------------------------------------------------------------------------|
B|-------------------------------------------------------------------------|
G|-13----------12--------11--11/12-11-9--------------9-11-11/12-11-9-------|
D|----14-12-14----14--------------------11-11--11-12-----------------11-11-|
A|-------------------------------------------------------------------------|
E|-------------------------------------------------------------------------|

E|-------------------------------------------------------------------------|
B|---------------------14-14------------------------12----12-13-15-12------|
G|----9--11-11/12-11-9-------16-14-16-14-14---12-14----14------------------|
D|-12----------------------------------------------------------------------|
A|-------------------------------------------------------------------------|
E|-------------------------------------------------------------------------|
Related for Dynasty Warriors - Struggle For Existence tab