Song name
# A B C D E F G H I J K L M N O P Q R S T U V W X Y Z

Misc Computer Games - Gradius Iii - Fire Scramble tab

h=hammer-on
p=pull-off
b=bend
()=optional notes

In the midi this part has several places where you need to do hammer-pulloffs
but in the osv its supposed to be only hammer-ons, i guess you can just
play whatever sounds better to you.
e----------------------------------------------16--15h16-----16---|
B16-15h16(p15)-----16-15h16(p15)------15-17-18-----------18-------|
G--------------17----------------17-------------------------------|
D-----------------------------------------------------------------|
A-----------------------------------------------------------------|
E-----------------------------------------------------------------|

e-20-18-16--------------------------------------------------18--------18-21-|
B----------18--20-18h20----------18-20---20-23-21--18-20-21-----20-21-------|
G-----------------------20----20--------------------------------------------|
D--------------------------21-----------------------------------------------|
A---------------------------------------------------------------------------|
E---------------------------------------------------------------------------|

e----15--13-12-13---13-12-------16-21------18--16-15-----------15-16----15-16-21-|
B-13----------------------15-14---------16-----------18--16-18-------18----------|
G--------------------------------------------------------------------------------|
D--------------------------------------------------------------------------------|
A--------------------------------------------------------------------------------|
E--------------------------------------------------------------------------------|

e-----------------------------------------------------------------|
B-----------------------------------------------------------------|
G-------------------------------------------17--------------------|
D-9-9h10-9--8-8---9-9h10-9---------17-15-18-----------------------|
A----------------------------15-18--------------------------------|
E-----------------------------------------------------------------|

e-----------------------------------------------------------------|
B-----------------------------------------------------------------|
G-----------------------------------------------------------------|
D-11-11h12-11--10-10---11-11h12-11--12--14--15--16----------------|
A-----------------------------------------------------------------|
E-----------------------------------------------------------------|

e-----------------------------------------------------------------|
B-----20-18-16-21---18-20-21-18-----------------------------------|
G-16--------------------------------13-14-12-----13-14-12---------|
D-----------------------------------------------------------------|
A--------------------------------15-----------15------------------|
E-----------------------------------------------------------------|
                                |i think this part is wrong,but it|
                                |sounds good...                   |

e-----------------19-17-16-21--23-23-23-23-23-23 24b25-25-25-25-25-25-25-25-|
B-21-19-18--23--------------------------------------------------------------|
G---------------------------------------------------------------------------|
D---------------------------------------------------------------------------|
A---------------------------------------------------------------------------|
E---------------------------------------------------------------------------|
Tap to rate this tab
 
# A B C D E F G H I J K L M N O P Q R S T U V W X Y Z