Song name
# A B C D E F G H I J K L M N O P Q R S T U V W X Y Z

Misc Computer Games - Kung Fu Master - Arcade Theme tab

Help us improve GuitareTab! Take a short survey!
Guitar
      Q     E   E   Q     Q       Q    Q    H           E  E  E   E  Q    Q
E||--14----14--14--12----12----|--9----9----5--------|--7--9--7-----------5----|
B||--14----14--14--12----12----|--9----9----5--------|--7--9--7--10--7----5----|
G||----------------------------|---------------------|------------9--6---------|
D||----------------------------|---------------------|-------------------------|
A||----------------------------|---------------------|-------------------------|
B||----------------------------|---------------------|-------------------------|

  W                   Q    E  E  Q    Q       Q    E  E  Q    Q
-------------------|-----------------------|-----------------------|
--7----------------|--2--------------------|-----------------------|
--6----------------|-----------------------|------------------6----|
-------------------|--4--------------------|------------------7----|
-------------------|-----------------------|-----------------------|
-------------------|--2----2--2--5----7----|--2----2--2--5----7----|

  Q    E  E  Q    Q       Q    E  E  Q    Q       Q    E  E  Q    Q
--0--------------------|-----------------------|-----------------------|
--2--------------------|-----------------------|--2--------------------|
-----------------------|-----------------------|-----------------------|
-----------------------|-----------------------|--4--------------------|
-----------------------|-----------------------|-----------------------|
--2----2--2--5----7----|--2----2--2--5----7----|--2----2--2--5----7----|

  Q    E  E  Q    Q       Q    E  E  Q    Q       Q    E  E  Q    Q
-----------------------|--2--------------------|-----------------------|
-----------------------|--2--------------------|-----------------------|
------------------6----|-----------------------|-----------------------|
------------------7----|-----------------------|-----------------------|
-----------------------|-----------------------|-----------------------|
--2----2--2--5----7----|--2----2--2--5----7----|--2----2--2--5----7----|

  Q    E  E  Q    Q       Q    Q    Q    Q       E  E  E  E  Q    Q
-----------------------|----------------------|------------------------|
------------------5----|----------------------|------------------------|
--6----6--4--6---------|--6-------------------|--4--6--4---------------|
-------4----------4----|-------4----7---------|--------4--7--4----7----|
-------------4---------|------------4----4----|--------------4---------|
--7--------------------|--7-------------------|--7---------------------|

  Q    E  E  Q    Q       Q    E  E  E  E  E  E     E  E  E  E  E  E  Q
-----------------------|-------5--2--------------|-----2-------------------|
-----------------------|-------------5--2-----5--|--------5--2-----2-------|
--6-------4--6---------|-------2-----------2-----|--------2-----4-----2----|
-------4----------4----|-------------2-----------|--------------2----------|
-------------4---------|--0----------------------|--0----------------------|
--7--------------------|-------------------------|-------------------------|

  E  E  E  E  Q    E  E     Q    E  E  Q    Q       Q    E  E  E  E  E  E
-----5-----0-------------|-----------------------|--7-------9--7--5-----5--|
--------7----------------|--7--------------------|-------------------7-----|
--------------6----4--6--|-----------------------|-------------------------|
-------------------4-----|------------------4----|-------------------------|
--------------4----------|-------4--2--4---------|-------------------------|
--7-----7----------------|--7--------------------|--0----0-----7-----0-----|

  E  E  E  E  Q    Q       Q    E  E  E  E  E  E     Q    E  E  Q    Q
--2--5--2--0-------2----|--0----------0--2--5--7--|--9-------7--9---------|
--------------3---------|-------0-----------------|-----------------------|
------------------------|----------6--------------|-----------------------|
--------0----------4----|-------------------------|-------7----------7----|
--------------0---------|-------7-----2-----7-----|--0----------7---------|
--3---------------------|--5----------------------|-----------------------|

  E  E  E  E  E  E  E  E     E  E  E  E  Q    Q       Q    E  E  E  E  Q
--7--9--7--5-----5-----0--|-------------------2----|--0----------0-----0----|
--------------7-----7-----|--3--5--3-----3---------|-------0----------------|
--------------------------|-----------2------------|----------6-----6-------|
--------------------------|--------0----------0----|------------------------|
--------------------------|--------------0---------|-------7-----------7----|
--0-----0-----7-----0-----|--3---------------------|--5----------0----------|

  Q    E  E  Q    Q
-----------------------||
--7--------------------||
-----------------------||
------------------4----||
-------4--2--4---------||
--7--------------------||

Duration Legend
---------------
W - whole
H - half
Q - quarter
E - 8th
S - 16th
T - 32nd
X - 64th
. - note dotted
|-n-|  - n-tuplets
Related for Kung Fu Master - Arcade Theme tab