Song name
# A B C D E F G H I J K L M N O P Q R S T U V W X Y Z

Misc Computer Games - Mortal Kombat - Main Theme tab

Help us improve GuitareTab! Take a short survey!
Q=137
 4/4
  Gtr II
  W          S S S S S S S S S S S S S S S S
|----------|---------------------------------|
|----------|---------1-------3-------5---3---|
|----------|-2---2-------2-------2-----------|
|----------|---------------------------------|
|----------|---------------------------------|
|----------|---------------------------------|

  S S S S S S S S S S S S S S S S   S S S S S S S S S S S S S S S S
|---------0-------3-------0-------|---------------------------------|
|-1---1-------1-------1-------1---|---------0-------1-------3---1---|
|---------------------------------|-0---0-------0-------0-----------|
|---------------------------------|---------------------------------|
|---------------------------------|---------------------------------|
|---------------------------------|---------------------------------|

  S S S S S S S S S S S S S S S S   S S S S S S S S S S S S S S S S
|---------------------------------|---------------------------------|
|-----------------1-------1---0---|---------1-------3-------5---3---|
|---------2-----------------------|-2---2-------2-------2-----------|
|-3---3-------3-------3-----------|---------------------------------|
|---------------------------------|---------------------------------|
|---------------------------------|---------------------------------|

  S S S S S S S S S S S S S S S S   S S S S S S S S S S S S S S S S
|---------0-------3-------0-------|---------------------------------|
|-1---1-------1-------1-------1---|---------0-------1-------3---1---|
|---------------------------------|-0---0-------0-------0-----------|
|---------------------------------|---------------------------------|
|---------------------------------|---------------------------------|
|---------------------------------|---------------------------------|

                                    Gtr I
  S S S S S S S S S S S S S S S S   E S S +S  S E S E S S S S S
|---------------------------------|-5---5-(5)---5---5---3---8---|
|-----------------1-------1---0---|-----------------------------|
|---------2-----------------------|-----------------------------|
|-3---3-------3-------3-----------|-----------------------------|
|---------------------------------|-----------------------------|
|---------------------------------|-----------------------------|

   E S  S  +S  S  E S  E S S S S S
|----------------------------------|
|-10---10-(10)---10---10---8-------|
|------------------------------9---|
|----------------------------------|
|----------------------------------|
|----------------------------------|

   E S  S  +S  S  E S  E S S S S S    E S  S  +S  S  S S  S  S S  S  S S E
|------------------------------8---|---------------------------------------|
|-10---10-(10)---10---10---8-------|-10---10-(10)---10---10-10---10-10-----|
|----------------------------------|---------------------------------------|
|----------------------------------|---------------------------------------|
|----------------------------------|---------------------------------------|
|----------------------------------|---------------------------------------|

   E S  S  +S  S  E S  E S S S S S    E S  S  +S  S  E S  E S S S S S
|------------------------------8---|-----------------------------------|
|-10---10-(10)---10---10---8-------|-10---10-(10)---10---10---8--------|
|----------------------------------|------------------------------9----|
|----------------------------------|-----------------------------------|
|----------------------------------|-----------------------------------|
|----------------------------------|-----------------------------------|

   E S  S  +S  S  E S  E S S S S S    E S  S  +S  S  S S  S  S S  S  S S E
|------------------------------8---|---------------------------------------|
|-10---10-(10)---10---10---8-------|-10---10-(10)---10---10-10---10-10-----|
|----------------------------------|---------------------------------------|
|----------------------------------|---------------------------------------|
|----------------------------------|---------------------------------------|
|----------------------------------|---------------------------------------|

   S  S S  S S S  S  S S  S S S  S  S  S S
|----12------8--------------8--------------|
|-10------10-----10-11---10-----10-11------|
|-------------------------------------12---|
|------------------------------------------|
|------------------------------------------|
|------------------------------------------|

   S  S S  S S S  S  S S  S S S  S  S  S S
|----12------8--------------8--------------|
|-10------10-----10-11---10-----10-11------|
|-------------------------------------12---|
|------------------------------------------|
|------------------------------------------|
|------------------------------------------|

   S  S S  S S S  S  S S  S S S  S  S  S S
|----12------8--------------8--------------|
|-10------10-----10-11---10-----10-11------|
|-------------------------------------12---|
|------------------------------------------|
|------------------------------------------|
|------------------------------------------|

   S  S S  S S S S S S S  S S  S S E
|----12------8-----------------------|
|-10------10-----8-8---8-10---10-----|
|------------------------------------|
|------------------------------------|
|------------------------------------|
|------------------------------------|

   S  S S  S S S  S  S S  S S S  S  S  S S
|----12------8--------------8--------------|
|-10------10-----10-11---10-----10-11------|
|-------------------------------------12---|
|------------------------------------------|
|------------------------------------------|
|------------------------------------------|

   S  S S  S S S  S  S S  S S S  S  S  S S
|----12------8--------------8--------------|
|-10------10-----10-11---10-----10-11------|
|-------------------------------------12---|
|------------------------------------------|
|------------------------------------------|
|------------------------------------------|

   S  S S  S S S  S  S S  S S S  S  S  S S   W          W
|----12------8--------------8--------------|----------|------|
|-10------10-----10-11---10-----10-11------|----------|------|
|-------------------------------------12---|----------|------|
|------------------------------------------|----------|------|
|------------------------------------------|----------|------|
|------------------------------------------|----------|------|

  W          W          W          W
|----------|----------|----------|------|
|----------|----------|----------|------|
|----------|----------|----------|------|
|----------|----------|----------|------|
|----------|----------|----------|------|
|----------|----------|----------|------|

  W          W          W
|----------|----------|------|
|----------|----------|------|
|----------|----------|------|
|----------|----------|------|
|----------|----------|------|
|----------|----------|------|

   E   S  S  +S  S  E   S  E   S S S S S
|------------------------------------8---|
|-10-----10-(10)---10-----10-----8-------|
|----------------------------------------|
|----------------------------------------|
|----------------------------------------|
|----------------------------------------|
|
| Gtr II
|  S S S  S   S  S  S S S  S S S S S S S
|----------------------------------------|
|-------------1---------3--------5---3---|
|--2---2------------2--------2-----------|
|----------------------------------------|
|----------------------------------------|
|----------------------------------------|

   E   S  S  +S  S  E   S  E   S S S S S
|----------------------------------------|
|-10-----10-(10)---10-----10-----8-------|
|------------------------------------9---|
|----------------------------------------|
|----------------------------------------|
|----------------------------------------|
|
|  S S S  S   S  S  S S S  S S S S S S S
|-------------0---------3--------0-------|
|--1---1------------1--------1-------1---|
|----------------------------------------|
|----------------------------------------|
|----------------------------------------|
|----------------------------------------|

   E   S  S  +S  S  E   S  E   S S S S S
|------------------------------------8---|
|-10-----10-(10)---10-----10-----8-------|
|----------------------------------------|
|----------------------------------------|
|----------------------------------------|
|----------------------------------------|
|
|  S S S  S   S  S  S S S  S S S S S S S
|----------------------------------------|
|-------------0---------1--------3---1---|
|--0---0------------0--------0-----------|
|----------------------------------------|
|----------------------------------------|
|----------------------------------------|

   E   S  S  +S  S  S S  S  S S  S  S S E
|-------------------------------------------|
|-10-----10-(10)---10---10-10---10-10-------|
|-------------------------------------------|
|-------------------------------------------|
|-------------------------------------------|
|-------------------------------------------|
|
|  S S S  S   S  S  S S  S  S S  S  S S S S
|-------------------------------------------|
|------------------------1----------1---0---|
|-------------2-----------------------------|
|--3---3------------3---------3-------------|
|-------------------------------------------|
|-------------------------------------------|

   E S  S  +S  S  E S  E S S S S S    E S  S  +S  S  E S  E S S S S S
|------------------------------8---|-----------------------------------|
|-10---10-(10)---10---10---8-------|-10---10-(10)---10---10---8--------|
|----------------------------------|------------------------------9----|
|----------------------------------|-----------------------------------|
|----------------------------------|-----------------------------------|
|----------------------------------|-----------------------------------|

   E S  S  +S  S  E S  E S S S S S    E S  S  +S  S  S S  S  S S  S  S S E
|------------------------------8---|---------------------------------------|
|-10---10-(10)---10---10---8-------|-10---10-(10)---10---10-10---10-10-----|
|----------------------------------|---------------------------------------|
|----------------------------------|---------------------------------------|
|----------------------------------|---------------------------------------|
|----------------------------------|---------------------------------------|

   S  S S  S S S  S  S S  S S S  S  S  S S
|----12------8--------------8--------------|
|-10------10-----10-11---10-----10-11------|
|-------------------------------------12---|
|------------------------------------------|
|------------------------------------------|
|------------------------------------------|

   S  S S  S S S  S  S S  S S S  S  S  S S
|----12------8--------------8--------------|
|-10------10-----10-11---10-----10-11------|
|-------------------------------------12---|
|------------------------------------------|
|------------------------------------------|
|------------------------------------------|

   S  S S  S S S  S  S S  S S S  S  S  S S
|----12------8--------------8--------------|
|-10------10-----10-11---10-----10-11------|
|-------------------------------------12---|
|------------------------------------------|
|------------------------------------------|
|------------------------------------------|

   S  S S  S S S S S S S  S S  S S E
|----12------8-----------------------|
|-10------10-----8-8---8-10---10-----|
|------------------------------------|
|------------------------------------|
|------------------------------------|
|------------------------------------|

   S  S S  S S S  S  S S  S S S  S  S  S S
|----12------8--------------8--------------|
|-10------10-----10-11---10-----10-11------|
|-------------------------------------12---|
|------------------------------------------|
|------------------------------------------|
|------------------------------------------|

   S  S S  S S S  S  S S  S S S  S  S  S S
|----12------8--------------8--------------|
|-10------10-----10-11---10-----10-11------|
|-------------------------------------12---|
|------------------------------------------|
|------------------------------------------|
|------------------------------------------|

   S  S S  S S S  S  S S  S S S  S  S  S S
|----12------8--------------8--------------|
|-10------10-----10-11---10-----10-11------|
|-------------------------------------12---|
|------------------------------------------|
|------------------------------------------|
|------------------------------------------|

   S  S S  S S S S S S S  S S  S S E
|----12------8-----------------------|
|-10------10-----8-8---8-10---10-----|
|------------------------------------|
|------------------------------------|
|------------------------------------|
|------------------------------------|

  W          W          W          W
|----------|----------|----------|------|
|----------|----------|----------|------|
|----------|----------|----------|------|
|----------|----------|----------|------|
|----------|----------|----------|------|
|----------|----------|----------|------|

  W          W          W          W
|----------|----------|----------|------|
|----------|----------|----------|------|
|----------|----------|----------|------|
|----------|----------|----------|------|
|----------|----------|----------|------|
|----------|----------|----------|------|

   E   S  S  +S  S  E   S  E   S S S S S
|------------------------------------8---|
|-10-----10-(10)---10-----10-----8-------|
|----------------------------------------|
|----------------------------------------|
|----------------------------------------|
|----------------------------------------|
|
| Gtr II
|  S S S  S   S  S  S S S  S S S S S S S
|----------------------------------------|
|-------------1---------3--------5---3---|
|--2---2------------2--------2-----------|
|----------------------------------------|
|----------------------------------------|
|----------------------------------------|

   E   S  S  +S  S  E   S  E   S S S S S
|----------------------------------------|
|-10-----10-(10)---10-----10-----8-------|
|------------------------------------9---|
|----------------------------------------|
|----------------------------------------|
|----------------------------------------|
|
|  S S S  S   S  S  S S S  S S S S S S S
|-------------0---------3--------0-------|
|--1---1------------1--------1-------1---|
|----------------------------------------|
|----------------------------------------|
|----------------------------------------|
|----------------------------------------|

   E   S  S  +S  S  E   S  E   S S S S S
|------------------------------------8---|
|-10-----10-(10)---10-----10-----8-------|
|----------------------------------------|
|----------------------------------------|
|----------------------------------------|
|----------------------------------------|
|
|  S S S  S   S  S  S S S  S S S S S S S
|----------------------------------------|
|-------------0---------1--------3---1---|
|--0---0------------0--------0-----------|
|----------------------------------------|
|----------------------------------------|
|----------------------------------------|

   E   S  S  +S  S  S S  S  S S  S  S S E
|-------------------------------------------|
|-10-----10-(10)---10---10-10---10-10-------|
|-------------------------------------------|
|-------------------------------------------|
|-------------------------------------------|
|-------------------------------------------|
|
|  S S S  S   S  S  S S  S  S S  S  S S S S
|-------------------------------------------|
|------------------------1----------1---0---|
|-------------2-----------------------------|
|--3---3------------3---------3-------------|
|-------------------------------------------|
|-------------------------------------------|

   E   S  S  +S  S  E   S  E   S S S S S
|------------------------------------8---|
|-10-----10-(10)---10-----10-----8-------|
|----------------------------------------|
|----------------------------------------|
|----------------------------------------|
|----------------------------------------|
|
|  S S S  S   S  S  S S S  S S S S S S S
|----------------------------------------|
|-------------1---------3--------5---3---|
|--2---2------------2--------2-----------|
|----------------------------------------|
|----------------------------------------|
|----------------------------------------|

   E   S  S  +S  S  E   S  E   S S S S S
|----------------------------------------|
|-10-----10-(10)---10-----10-----8-------|
|------------------------------------9---|
|----------------------------------------|
|----------------------------------------|
|----------------------------------------|
|
|  S S S  S   S  S  S S S  S S S S S S S
|-------------0---------3--------0-------|
|--1---1------------1--------1-------1---|
|----------------------------------------|
|----------------------------------------|
|----------------------------------------|
|----------------------------------------|

   E   S  S  +S  S  E   S  E   S S S S S
|------------------------------------8---|
|-10-----10-(10)---10-----10-----8-------|
|----------------------------------------|
|----------------------------------------|
|----------------------------------------|
|----------------------------------------|
|
|  S S S  S   S  S  S S S  S S S S S S S
|----------------------------------------|
|-------------0---------1--------3---1---|
|--0---0------------0--------0-----------|
|----------------------------------------|
|----------------------------------------|
|----------------------------------------|

   E   S  S  +S  S  S S  S  S S  S  S S E
|-------------------------------------------|
|-10-----10-(10)---10---10-10---10-10-------|
|-------------------------------------------|
|-------------------------------------------|
|-------------------------------------------|
|-------------------------------------------|
|
|  S S S  S   S  S  S S  S  S S  S  S S S S
|-------------------------------------------|
|------------------------1----------1---0---|
|-------------2-----------------------------|
|--3---3------------3---------3-------------|
|-------------------------------------------|
|-------------------------------------------|

   S  S S  S S S  S  S S  S S S  S  S  S S
|----12------8--------------8--------------|
|-10------10-----10-11---10-----10-11------|
|-------------------------------------12---|
|------------------------------------------|
|------------------------------------------|
|------------------------------------------|

   S  S S  S S S  S  S S  S S S  S  S  S S
|----12------8--------------8--------------|
|-10------10-----10-11---10-----10-11------|
|-------------------------------------12---|
|------------------------------------------|
|------------------------------------------|
|------------------------------------------|

   S  S S  S S S  S  S S  S S S  S  S  S S
|----12------8--------------8--------------|
|-10------10-----10-11---10-----10-11------|
|-------------------------------------12---|
|------------------------------------------|
|------------------------------------------|
|------------------------------------------|

   S  S S  S S S S S S S  S S  S S E
|----12------8-----------------------|
|-10------10-----8-8---8-10---10-----|
|------------------------------------|
|------------------------------------|
|------------------------------------|
|------------------------------------|

   S  S S  S S S  S  S S  S S S  S  S  S S
|----12------8--------------8--------------|
|-10------10-----10-11---10-----10-11------|
|-------------------------------------12---|
|------------------------------------------|
|------------------------------------------|
|------------------------------------------|

   S  S S  S S S  S  S S  S S S  S  S  S S
|----12------8--------------8--------------|
|-10------10-----10-11---10-----10-11------|
|-------------------------------------12---|
|------------------------------------------|
|------------------------------------------|
|------------------------------------------|

   S  S S  S S S  S  S S  S S S  S  S  S S   W          W
|----12------8--------------8--------------|----------|------|
|-10------10-----10-11---10-----10-11------|----------|------|
|-------------------------------------12---|----------|------|
|------------------------------------------|----------|------|
|------------------------------------------|----------|------|
|------------------------------------------|----------|------|

  W          W          W          W
|----------|----------|----------|------|
|----------|----------|----------|------|
|----------|----------|----------|------|
|----------|----------|----------|------|
|----------|----------|----------|------|
|----------|----------|----------|------|

  W          W          W
|----------|----------|------|
|----------|----------|------|
|----------|----------|------|
|----------|----------|------|
|----------|----------|------|
|----------|----------|------|

   E   S  S  +S  S  E   S  E   S S S S S
|------------------------------------8---|
|-10-----10-(10)---10-----10-----8-------|
|----------------------------------------|
|----------------------------------------|
|----------------------------------------|
|----------------------------------------|
|
| Gtr II
|  S S S  S   S  S  S S S  S S S S S S S
|----------------------------------------|
|-------------1---------3--------5---3---|
|--2---2------------2--------2-----------|
|----------------------------------------|
|----------------------------------------|
|----------------------------------------|

   E   S  S  +S  S  E   S  E   S S S S S
|----------------------------------------|
|-10-----10-(10)---10-----10-----8-------|
|------------------------------------9---|
|----------------------------------------|
|----------------------------------------|
|----------------------------------------|
|
|  S S S  S   S  S  S S S  S S S S S S S
|-------------0---------3--------0-------|
|--1---1------------1--------1-------1---|
|----------------------------------------|
|----------------------------------------|
|----------------------------------------|
|----------------------------------------|

   E   S  S  +S  S  E   S  E   S S S S S
|------------------------------------8---|
|-10-----10-(10)---10-----10-----8-------|
|----------------------------------------|
|----------------------------------------|
|----------------------------------------|
|----------------------------------------|
|
|  S S S  S   S  S  S S S  S S S S S S S
|----------------------------------------|
|-------------0---------1--------3---1---|
|--0---0------------0--------0-----------|
|----------------------------------------|
|----------------------------------------|
|----------------------------------------|

   E   S  S  +S  S  S S  S  S S  S  S S E
|-------------------------------------------|
|-10-----10-(10)---10---10-10---10-10-------|
|-------------------------------------------|
|-------------------------------------------|
|-------------------------------------------|
|-------------------------------------------|
|
|  S S S  S   S  S  S S  S  S S  S  S S S S
|-------------------------------------------|
|------------------------1----------1---0---|
|-------------2-----------------------------|
|--3---3------------3---------3-------------|
|-------------------------------------------|
|-------------------------------------------|

   E   S  S  +S  S  E   S  E   S S S S S
|------------------------------------8---|
|-10-----10-(10)---10-----10-----8-------|
|----------------------------------------|
|----------------------------------------|
|----------------------------------------|
|----------------------------------------|
|
|  S S S  S   S  S  S S S  S S S S S S S
|----------------------------------------|
|-------------1---------3--------5---3---|
|--2---2------------2--------2-----------|
|----------------------------------------|
|----------------------------------------|
|----------------------------------------|

   E   S  S  +S  S  E   S  E   S S S S S
|----------------------------------------|
|-10-----10-(10)---10-----10-----8-------|
|------------------------------------9---|
|----------------------------------------|
|----------------------------------------|
|----------------------------------------|
|
|  S S S  S   S  S  S S S  S S S S S S S
|-------------0---------3--------0-------|
|--1---1------------1--------1-------1---|
|----------------------------------------|
|----------------------------------------|
|----------------------------------------|
|----------------------------------------|

   E   S  S  +S  S  E   S  E   S S S S S
|------------------------------------8---|
|-10-----10-(10)---10-----10-----8-------|
|----------------------------------------|
|----------------------------------------|
|----------------------------------------|
|----------------------------------------|
|
|  S S S  S   S  S  S S S  S S S S S S S
|----------------------------------------|
|-------------0---------1--------3---1---|
|--0---0------------0--------0-----------|
|----------------------------------------|
|----------------------------------------|
|----------------------------------------|

   E   S  S  +S  S  S S  S  S S  S  S S E
|-------------------------------------------|
|-10-----10-(10)---10---10-10---10-10-------|
|-------------------------------------------|
|-------------------------------------------|
|-------------------------------------------|
|-------------------------------------------|
|
|  S S S  S   S  S  S S  S  S S  S  S S S S
|-------------------------------------------|
|------------------------1----------1---0---|
|-------------2-----------------------------|
|--3---3------------3---------3-------------|
|-------------------------------------------|
|-------------------------------------------|

   S  S S  S S S  S  S S  S S S  S  S  S S
|----12------8--------------8--------------|
|-10------10-----10-11---10-----10-11------|
|-------------------------------------12---|
|------------------------------------------|
|------------------------------------------|
|------------------------------------------|

   S  S S  S S S  S  S S  S S S  S  S  S S
|----12------8--------------8--------------|
|-10------10-----10-11---10-----10-11------|
|-------------------------------------12---|
|------------------------------------------|
|------------------------------------------|
|------------------------------------------|

   S  S S  S S S  S  S S  S S S  S  S  S S
|----12------8--------------8--------------|
|-10------10-----10-11---10-----10-11------|
|-------------------------------------12---|
|------------------------------------------|
|------------------------------------------|
|------------------------------------------|

   S  S S  S S S S S S S  S S  S S E
|----12------8-----------------------|
|-10------10-----8-8---8-10---10-----|
|------------------------------------|
|------------------------------------|
|------------------------------------|
|------------------------------------|

   S  S S  S S S  S  S S  S S S  S  S  S S
|----12------8--------------8--------------|
|-10------10-----10-11---10-----10-11------|
|-------------------------------------12---|
|------------------------------------------|
|------------------------------------------|
|------------------------------------------|

   S  S S  S S S  S  S S  S S S  S  S  S S
|----12------8--------------8--------------|
|-10------10-----10-11---10-----10-11------|
|-------------------------------------12---|
|------------------------------------------|
|------------------------------------------|
|------------------------------------------|

   S  S S  S S S  S  S S  S S S  S  S  S S
|----12------8--------------8--------------|
|-10------10-----10-11---10-----10-11------|
|-------------------------------------12---|
|------------------------------------------|
|------------------------------------------|
|------------------------------------------|

   S  S S  S S S S S S S  S S  S S E
|----12------8-----------------------|
|-10------10-----8-8---8-10---10-----|
|------------------------------------|
|------------------------------------|
|------------------------------------|
|------------------------------------|

                                       Gtr II
   S  S S  S S S S S S S  S S  S S E   S S S S S S S S S S S S S S S S
|----12------8-----------------------|---------------------------------|
|-10------10-----8-8---8-10---10-----|---------1-------3-------5---3---|
|------------------------------------|-2---2-------2-------2-----------|
|------------------------------------|---------------------------------|
|------------------------------------|---------------------------------|
|------------------------------------|---------------------------------|

  S S S S S S S S S S S S S S S S   S S S S S S S S S S S S S S S S
|---------0-------3-------0-------|---------------------------------|
|-1---1-------1-------1-------1---|---------0-------1-------3---1---|
|---------------------------------|-0---0-------0-------0-----------|
|---------------------------------|---------------------------------|
|---------------------------------|---------------------------------|
|---------------------------------|---------------------------------|

  S S S S S S S S S S S S S S S S   S S S S S S S S S S S S S S S S
|---------------------------------|---------------------------------|
|-----------------1-------1---0---|---------1-------3-------5---3---|
|---------2-----------------------|-2---2-------2-------2-----------|
|-3---3-------3-------3-----------|---------------------------------|
|---------------------------------|---------------------------------|
|---------------------------------|---------------------------------|

  S S S S S S S S S S S S S S S S   S S S S S S S S S S S S S S S S
|---------0-------3-------0-------|---------------------------------|
|-1---1-------1-------1-------1---|---------0-------1-------3---1---|
|---------------------------------|-0---0-------0-------0-----------|
|---------------------------------|---------------------------------|
|---------------------------------|---------------------------------|
|---------------------------------|---------------------------------|

  s S s S s S s S s S s S s S s S
|---------------------------------*|
|-----------------1-------1---0---*|
|---------2-----------------------*|
|-3---3-------3-------3-----------*|
|---------------------------------*|
|---------------------------------*|
Related for Mortal Kombat - Main Theme tab