Song name
# A B C D E F G H I J K L M N O P Q R S T U V W X Y Z

Misc Computer Games - Pac-man - Level tab

Guitar

      T T  T T  T T  T T  T  T S  S.T  T T  T T  T T  T T  T  T S  S.T  
E||-------19-------------19----------------20-------------20-----------|
B||------------19-----------19------------------20-----------20--------|
G||-----------------20-----------20---17-------------21-----------21---|
D||--21----------------------------------------------------------------|
A||--------------------------------------------------------------------|
E||--------------------------------------------------------------------|


   T T  T T  T T  T T  T  T S  S.T  T  T  T T  T  T  T T  T  T  T T  S S   
-------19-------------19--------------------------------------------19---||
------------19-----------19---------------------------------21-22--------||
-----------------20-----------20---20-21-22---22-23-24---24--------------||
--21---------------------------------------------------------------------||
-------------------------------------------------------------------------||
-------------------------------------------------------------------------||


Bass

     S E  S S E  S S E  S S E  S    S E  S S E  S S S S S S S S S   
E||------------------------------|--------------------------------||
B||------------------------------|--------------------------------||
G||------------------------------|--------------------------------||
D||------------------------------|--------------------------------||
A||-------2------2------3------3-|-------2------2---------1---2---||
E||------------------------------|----------------2---4-----------||
Tap to rate this tab
 
# A B C D E F G H I J K L M N O P Q R S T U V W X Y Z