Song name
# A B C D E F G H I J K L M N O P Q R S T U V W X Y Z

Misc Computer Games - Donkey Kong Theme tab

***BONUS STAGE TAB***

e----------------0-0-1-0-------0-0-0------------------------0-----|
B------0-1-3-------------1-----------3-1--3-3-3-1-0-1-1-1-3---3-1-|
G--0-0------------------------------------------------------------|
D-----------------------------------------------------------------|
A-----------------------------------------------------------------|
E-----------------------------------------------------------------|

e-----0--3-----4--5--7-----8-10-8-10h11-10-8-5---|
B--4---------------------------------------------|
G------------------------------------------------|
D------------------------------------------------|
A------------------------------------------------|
E------------------------------------------------|

e--11-12-15-12-11-10-8-----6-7-10-7-6-5-3-----5-8-10-11-10-8-|
B------------------------------------------------------------|
G------------------------------------------------------------|
D------------------------------------------------------------|
A------------------------------------------------------------|
E------------------------------------------------------------|

***CRANKY'S CABIN***

e------5---1-3-1-----------6---3-5-3-0-----0-0-8---5-6-8-10---1-3-5---0-1-3-1-|
B--1-1-----------3-----3-3----------------------------------------------------|
G-----------------------------------------------------------------------------|
D-----------------------------------------------------------------------------|
A-----------------------------------------------------------------------------|
E-----------------------------------------------------------------------------|

e--5-5-5-3-1-1-------6-6-6-5-3-0-0-1-3--0-------|
B--------------3--------------------------3-1---|
G-----------------------------------------------|
D-----------------------------------------------|
A-----------------------------------------------|
E-----------------------------------------------|

e--8-8-8-6-5-6-6-8-10---1-3-5-1---0-1-3-1-|
B-----------------------------------------|
G-----------------------------------------|
D-----------------------------------------|
A-----------------------------------------|
E-----------------------------------------|

***GANGPLANK GALLEON***

e------------------------5-----8---6-|
B--6-5-------5-6-5---5-6---6---------|
G------7-5-7-------7-----------------|
D------------------------------------|
A------------------------------------|
E------------------------------------|

e-------------------------------8----------------------------------------|
B--10--10-8-10--10-8-10-8-10-11---11-----------------------------8-10----|
G--------------------------------------10--10-9-10--10-9-10-9-10------10-|
D------------------------------------------------------------------------|
A------------------------------------------------------------------------|
E------------------------------------------------------------------------|

e-------------------------------8-----------------------------------8---------|
B--10--10-8-10--10-8-10-8-10-11---11-10-8------------10----------10---10------|
G-----------------------------------------10-9-10-12----12-10-12-----------9--|b
D-----------------------------------------------------------------------------|
A-----------------------------------------------------------------------------|
E-----------------------------------------------------------------------------|

e-------------------------------------------------------------------|
B----------------------5-6--------------------------10-11-10-8------|
G--7--7-5-7--7-5-7-5-7-----7-----------------------------------10-9-|
D------------------------------10--10-8-10-8-7-8-10-----------------|
A-------------------------------------------------------------------|
E-------------------------------------------------------------------|

e--------------------------------------------------------------|
B----------------------5-6-----------5-6-----8-6---6-10-8------|
G--7--7-5-7--7-5-7-5-7-----7---7-5-7-----7-------9--------10-9-|
D--------------------------------------------------------------|
A--------------------------------------------------------------|
E--------------------------------------------------------------|

e---------8----------------------------------------8---------8--------8--10--|
B--10---------------10--8-------------------10-------------------------------|
G------------10---------------9--7--------------------10--------9------------|
D----------------------------------------------------------------------------|
A----------------------------------------------------------------------------|
E----------------------------------------------------------------------------|

e---------------8---------8--------8--10-|
B--------10------------------------------|
G------------------10--------9-----------|
D----------------------------------------|
A----------------------------------------|
E----------------------------------------|

e-------------------------------8-|
B--10-10p8p10-10p8p10p8h10p8p10---|
G---------------------------------|
D---------------------------------|
A---------------------------------|
E---------------------------------|

e-------------------------------8-|
B---------------------------------|
G--10-10p9h10-10p9h10p9h10p9h10---|
D---------------------------------|
A---------------------------------|
E---------------------------------|

e-------------------------------|
B--8-8p6h8-8p6h8p6h8p6h8-10-10--|
G-------------------------------|
D-------------------------------|
A-------------------------------|
E-------------------------------| x2
Tap to rate this tab
 
# A B C D E F G H I J K L M N O P Q R S T U V W X Y Z