Song name
# A B C D E F G H I J K L M N O P Q R S T U V W X Y Z

Misc Computer Games - Duck Tales Theme tab

Note: Sometimes you must ignore the timing! Just listen to the song!

***INTRO THEME***

e------------------------------------------------------------------------------|
B-------12-14--15-15--14-12------------------------12-14--15-15--14-12---15-14-|
G----13--------------------14--14-13--14-13-----13--------------------14-------|
D-14-----------------------------------------14--------------------------------|
A------------------------------------------------------------------------------|
E------------------------------------------------------------------------------|

e---------------------------12-14--16-14-12----------------19-16--------------|
B-15-14--------14-14-12--14-----------------14--17-17---17--------17-15-------|
G-----------14----------------------------------------------------------17----|
D--------16-------------------------------------------------------------------|
A-----------------------------------------------------------------------------|
E-----------------------------------------------------------------------------|

e-------------------------19-16-------------------------------------------19--|
B-15-17-15----15-17-17-17--------17-15-----15-17-15----15-17-17--17-19-21-----|
G----------17--------------------------17-----------17------------------------|
D-----------------------------------------------------------------------------|
A-----------------------------------------------------------------------------|
E-----------------------------------------------------------------------------|

e-----------16---------------------------16----16-17-16------------------16---|
B--17-17-17----17--------14-17--17-17-17----17----------17--19-19--19-19------|
G------------------16-16------------------------------------------------------|
D-----------------------------------------------------------------------------|
A-----------------------------------------------------------------------------|
E-----------------------------------------------------------------------------|

e-18-16----16-------------21-18-|------------------------------------21-18|---|
B-------19------19-19--19-------|--19-17----17-19-17----17-19-19--19------|---|
G-------------------------------|--------19----------19-------------------|x3-|
D-------------------------------|-----------------------------------------|---|
A-------------------------------|-----------------------------------------|---|
E-------------------------------|-----------------------------------------|---|

e-----------------------------------------------------------------------------|
B--------------------------------------------------10-10--10-10---------------|
G-------6-7-7-6------11-9--11-9-------6-7-7-6-------------------------------9-|
D---6-9---------9-7---------------6-9---------9-7-------------------9--9-11---|
A-7-----------------------------7--------------------------------9------------|
E-----------------------------------------------------------------------------|

e--------9------------16------------------------------------------------------|
B---9-12---12-12---------17---------------------------9-----------------------|
G-9----------------16--------------6-9---12-11----------9--9-12-11-9----9-----|
D------------------------------6-9-------------9-9--9----------------12-------|
A----------------------------7------------------------------------------------|
E-----------------------------------------------------------------------------|

e---------------14-16-19---------------16------------------------16----16-17--|
B------------17-----------17-17-17--17----17--------14-17--17-17----17--------|
G---------------------------------------------16-16---------------------------|
D-10-12-9-9-------------------------------------------------------------------|
A-----------------------------------------------------------------------------|
E-----------------------------------------------------------------------------|

e-16--------------16-18-16----16----------18--------------11-14----17-16------|
B----17--19-19-19----------19----------------19--11-11-14----------------14---|
G-------------------------------18-18--18-------------------------------------|
D-----------------------------------------------------------------------------|
A-----------------------------------------------------------------------------|
E-----------------------------------------------------------------------------|

e-------18-----14-17-16-14----14------------------18--------16----18-21-------|
B-14-------19--------------17-----15-17-14-14--------19--19----19-------------|
G----18----------------------------------------18-----------------------------|
D-----------------------------------------------------------------------------|
A-----------------------------------------------------------------------------|
E-----------------------------------------------------------------------------|

e--------16-19-----17-----------18--------------------------------------------|
B-19--19--------19----19-19--------19-----------------------------------------|
G----------------------------18-----------------------------------------------|
D-----------------------------------------------------------------------------|
A-----------------------------------------------------------------------------|
E-----------------------------------------------------------------------------|


***AMAZON TAB***

e------------------------------------------------------------------------------|
B----------------------------------10----10-----------------------------10-----|
G-9-9-10--12--9-9-10--12------9-12----12----12-9-------------------9-12----12--|
D--------------------------10---------------------12-12--14-12--10-------------|
A------------------------------------------------------------------------------|
E------------------------------------------------------------------------------|


e------------------------------------------------------------------------------|
B-13-10-------------------------------------------------------------------16---|
G-------12-9--------9------------9--------------9-----------12---12-14-12------|
D------------12-12----12--10--12---10--12-10-12---10-----10--------------------|
A-----------------------------------------------------12-----------------------|
E------------------------------------------------------------------------------|


e------------------------------------------------------------------------------|
B-15-13----13-13--13-13--13--12-12--12-12--12--11-11--11-11--11--10-10--10-10--|
G-------14---------------------------------------------------------------------|
D------------------------------------------------------------------------------|
A------------------------------------------------------------------------------|
E------------------------------------------------------------------------------|


e------------------------------------------------------------------------------|
B-10---------------------------------------------------------------------------|
G------------------------------------------------------------------------------|
D-----10-10-10--10-10-10/12\10--14-13-12-11-----------10-----10----------------|
A--------------------------------------------12-10-12-----12----12-11-10-9-10--|
E------------------------------------------------------------------------------|


e------------------------------------------------------------------------------|
B------------------------------------------------------------------------------|
G------------------------------------------------------------------------------|
D-10---------------------------------------------------------------------------|
A------------------------------------------------------------------------------|
E----12--11--10--8-------------------------------------------------------------|

e------------------------------------------------------------------------------|
B--------------------------------------10----10----------------------------10--|
G---------------------------------9-12----12----12-9------------------9-12-----|
D------------9-------------9---10--------------------12-12--14-12--10----------|
A-10--10--12----10--10--12-----------------------------------------------------|
E------------------------------------------------------------------------------|


e------------------------------------------------------------------------------|
B----13-10---------------------------------------------------------------------|
G-12-------12-9--------9------------9-------------9----------------------------|
D---------------12-12----12--10--12---10-12-10-12---10-----10-9-9--10-10--11---|
A-------------------------------------------------------12---------------------|
E------------------------------------------------------------------------------|


e------------------------------------------------------------------------------|
B----------------16-15-13------------------------------------------------------|
G-------12-14-12----------14-9-9--9-9--9--9-9--9-9--9--9-9--9-9--9-10-10--10---|
D-11-12------------------------------------------------------------------------|
A------------------------------------------------------------------------------|
E------------------------------------------------------------------------------|


e------------------------------------------------------------------------------|
B------------------------------------------------------------------------------|
G-10--10-----------------------------------------------------------------------|
D--------------------------------------------------10-----10-------------------|
A---------12-12--12--12-12--12--10-9-8-7--10-10-12-----12-----12-11-10-9-10----|
E------------------------------------------------------------------------------|


e------------------------------------------------------------------------------|
B------------------------------------------------------------------------------|
G------------------------------------------------------------------------------|
D-10---------------------------------------------------------------------------|
A----9-8-7---------------------------------------------------------------------|
E------------------------------------------------------------------------------|


***STAGE SELECT***

e-17----16-17----16-17---------------------|
B----17-------17-------17------------------|
G------------------------------------------|
D------------------------------------------|
A------------------------------------------|
E------------------------------------------|
Tap to rate this tab
# A B C D E F G H I J K L M N O P Q R S T U V W X Y Z