Song name
# A B C D E F G H I J K L M N O P Q R S T U V W X Y Z

Misc Computer Games - Dynasty Warriors 5 - Condensed tab

-------------------------------------------------------------------------------
			     Condensed - Dynasty Warriors 5
-------------------------------------------------------------------------------
Tabbed by: iruka2998
Email: tbanez18@googlemail.com

Tuning: Standard (EADGBe)




Time = 0.17
e|---------------------------------------------------------------------------|
B|-12b-10~--12b-12b-10~--12b-12b-10~--12b-12b-10~----------------------------|
G|---------------------------------------------------------------------------|
D|---------------------------------------------------------------------------|
A|---------------------------------------------------------------------------|
E|---------------------------------------------------------------------------|

e|---------------------------------------------------------------------------|
B|--12b-12b-10~--12b-12b-10~--12b-12b-10~--12b-12b-10~-----------------------|
G|---------------------------------------------------------------------------|
D|---------------------------------------------------------------------------|
A|---------------------------------------------------------------------------|
E|---------------------------------------------------------------------------|

Time = 0.45
e|---------------------------------------------------------------------------|
B|-13p12-10--13-12-10--12-10--13-12-10--12-10--13-12-10----12-10-------------|
G|------------------------------------------------------12-------------------|
D|---------------------------------------------------------------------------|
A|---------------------------------------------------------------------------|
E|---------------------------------------------------------------------------|

Time = 0.58
e|---------------------------------------------------------------------------|
B|-12b-12b-10~--12b-12b-10~--12b-12b-10~--12b-12b-10~------------------------|
G|---------------------------------------------------------------------------|
D|---------------------------------------------------------------------------|
A|---------------------------------------------------------------------------|
E|---------------------------------------------------------------------------|

Time = 1.13
e|---------------------------------------------------------------------------|
B|-13p12-10--13-12-10--12-10--13-12-10--12-10--13-12-10----12-10-------------|
G|------------------------------------------------------12-------------------|
D|---------------------------------------------------------------------------|
A|---------------------------------------------------------------------------|
E|---------------------------------------------------------------------------|

Time = 1.27
e|---------------------------------------------------------------------------|
B|-12b-12b-10~--12b-12b-10~--12b-12b-10~--12b-12b-10~------------------------|
G|---------------------------------------------------------------------------|
D|---------------------------------------------------------------------------|
A|---------------------------------------------------------------------------|
E|---------------------------------------------------------------------------|
E|---------------------------------------------------------------------------|

*synth/keyboard interlude*

Time = 2.22
e|---------------------------------------------------------------------------|
B|-12b-12b-10~--12b-12b-10~--12b-12b-10~--12b-12b-10~------------------------|
G|---------------------------------------------------------------------------|----|Play 2 times|
D|---------------------------------------------------------------------------|
A|---------------------------------------------------------------------------|
E|---------------------------------------------------------------------------|

Time = 2.51
e|---------------------------------------------------------------------------|
B|-13p12-10--13-12-10--12-10--13-12-10--12-10--13-12-10----12-10-------------|
G|------------------------------------------------------12-------------------|
D|---------------------------------------------------------------------------|
A|---------------------------------------------------------------------------|
E|---------------------------------------------------------------------------|

Time = 3.04
e|---------------------------------------------------------------------------|
B|-12b-12b-10~--12b-12b-10~--12b-12b-10~--12b-12b-10~------------------------|
G|---------------------------------------------------------------------------|
D|---------------------------------------------------------------------------|
A|---------------------------------------------------------------------------|
E|---------------------------------------------------------------------------|

Time = 3.19
e|---------------------------------------------------------------------------|
B|-13p12-10--13-12-10--12-10--13-12-10--12-10--13-12-10----12-10-------------|
G|------------------------------------------------------12-------------------|
D|---------------------------------------------------------------------------|
A|---------------------------------------------------------------------------|
E|---------------------------------------------------------------------------|

Time = 3.32
e|---------------------------------------------------------------------------|
B|-12b-12b-10~--12b-12b-10~--12b-12b-10~--12b-12b-10~------------------------|
G|---------------------------------------------------------------------------|
D|---------------------------------------------------------------------------|
A|---------------------------------------------------------------------------|
E|---------------------------------------------------------------------------|

*synth/keyboard interlude*


Time = 4.29
e|---------------------------------------------------------------------------|
B|-12b-12b-10~--12b-12b-10~--12b-12b-10~--12b-12b-10~------------------------|
G|---------------------------------------------------------------------------|
D|---------------------------------------------------------------------------|
A|---------------------------------------------------------------------------|
E|---------------------------------------------------------------------------|


*Note: To achieve the guitar sound in this song use "Chorus" effect, at 3*

==============================================================================
| b  bend
| /  slide up
| \  slide down
| h  hammer-on
| p  pull-off
| ~  vibrato
| +  harmonic
| x  Mute note
===============================================================================
Tap to rate this tab
 
# A B C D E F G H I J K L M N O P Q R S T U V W X Y Z