Song name
# A B C D E F G H I J K L M N O P Q R S T U V W X Y Z

Misc Computer Games - Dynasty Warriors 5 - Gloomy Shadow tab

-------------------------------------------------------------------------------
			     Gloomy Shadow - Dynasty Warriors 5
-------------------------------------------------------------------------------
Tabbed by: iruka2998
Email: tbanez18@googlemail.com

Tuning: Standard (EADGBe)


Time = 0.00
e|---------------------------------------------------------------------------|
B|---------------------------------------------------------------------------|
G|---------------------------------------------------------------------------|
D|--7--7-7-7-7-7-7-7----7--7-7-7-7-7-7-7-8-----------------------------------|---|Play 2 Times|
A|---------------------------------------------------------------------------|
E|---------------------------------------------------------------------------|

e|---------------------------------------------------------------------------|
B|---------------------------------------------------------------------------|
G|-------------------------------------------------------------------7-9~----|
D|--7--7-7-7-7-7-7-7----7--7-7-7-7-7-7-7----7--7-7-7-7-7-7-7--7-9-10---------|
A|---------------------------------------------------------------------------|
E|---------------------------------------------------------------------------|

e|---------------------------------------------------------------------------|
B|---------------------------------------------------------------------------|
G|---------------------------------------------------------------------------|
D|--7--7-7-7-7-7-7-7----7--7-7-7-7-7-7-7-------------------------------------|
A|---------------------------------------------------------------------------|
E|---------------------------------------------------------------------------|

Time = 0.20
e|---------------------------------------------------------------------------|
B|---------------------------------------------------------------------------|
G|---------------------------------------------------------------------------|
D|--7-9-10-12b-10~~~-3h4-7-9-10-12-14b--12h14p12~~~--------------------------|
A|---------------------------------------------------------------------------|
E|---------------------------------------------------------------------------|

Time = 0.36
e|---------------------------------------------------------------------------|
B|---------------------------------------------------------------------------|
G|---------------------------------------------------------------------------|
D|--7--7-7-7-7-7-7-7----7--7-7-7-7-7-7-7-8-----------------------------------|
A|---------------------------------------------------------------------------|
E|---------------------------------------------------------------------------|

Time = 0.40
e|---------------------------------------------------------------------------|
B|---------------------------------------------------------------------------|
G|---------------------------------------------------------------------------|
D|--7-9-10-12b-10~~~-3h4-7-9-10-12-14b--12h14p12~~~--------------------------|
A|---------------------------------------------------------------------------|
E|---------------------------------------------------------------------------|

Time = 0.57
e|---------------------------------------------------------------------------|
B|---------------------------------------------------------------------------|
G|---------------------------------------------------------------------------|
D|-2--5--2--4----------------------------------------------------------------|
A|-0--3--0--2----------------------------------------------------------------|
E|---------------------------------------------------------------------------|

Time = 1.01 [GUITAR 1]
e|---------------------------------------------------------------------------|
B|---------------------------------------------------------------------------|
G|---------------------------------------------------------------------------|
D|--7-7-8--7-7-8--7-7-8--7-7-8-----------------------------------------------|---|Play 5 Times|
A|---------------------------------------------------------------------------|
E|---------------------------------------------------------------------------|

Time = 1.13 [harmonised][ choose to play this part or GUITAR 1]
e|---------------------------------------------------------------------------|
B|---------------------------------------------------------------------------|
G|---------------------------------------------------------------------------|
D|--12-12-13--12-12-13--12-12-13--12-12-13-----------------------------------|---|Play 3 Times|
A|---------------------------------------------------------------------------|
E|---------------------------------------------------------------------------|

Time = 1.21
e|---------------------------------------------------------------------------|
B|---------------------------------------------------------------------------|
G|---------------------------------------------------------------------------|
D|-7-9b-7--10-9-5--10-14-12--10-9----/10--7-14-12--12-14-15-19-20-19~~~------|
A|---------------------------------------------------------------------------|
E|---------------------------------------------------------------------------|

Time = 1.37
e|------------------------------------------------------------------------------|
B|------------------------------------------------------------------------------|
G|------------------------------------------------------------------------------|
D|-7-9b-7--10-9-5--7-9-10--12b-12b-10~~--12-14-15--10-14b-12-14-15--19-20-19~~--|
A|------------------------------------------------------------------------------|
E|------------------------------------------------------------------------------|

Time = 1.54
e|---------------------------------------------------------------------------|
B|---------------------------------------------------------------------------|
G|---------------------------------------------------------------------------|
D|-7-7-7-7-7--7-7-7-7-7-8----------------------------------------------------|
A|---------------------------------------------------------------------------|
E|---------------------------------------------------------------------------|

Time = 1.58
e|---------------------------------------------------------------------------|
B|---------------------------------------------------------------------------|
G|---------------------------------------------------------------------------|
D|-2-2-3-------2-2-3--------2-2-3-------2-2-3--------------------------------|---|Play 2 Times|
A|-0-0-1-x-x-x-0-0-1--x-x-x-0-0-1-x-x-x-0-0-1-x-x-x--------------------------|
E|---------------------------------------------------------------------------|

Time = 2.10
e|---------------------------------------------------------------------------|
B|---------------------------------------------------------------------------|
G|---------------------------------------------------------------------------|
D|--7--7-7-7-7-7-7-7----7--7-7-7-7-7-7-7-------------------------------------|
A|---------------------------------------------------------------------------|
E|---------------------------------------------------------------------------|

Time = 2.14
e|---------------------------------------------------------------------------|
B|---------------------------------------------------------------------------|
G|---------------------------------------------------------------------------|
D|--7-9-10-12b-10~~~-3h4-7-9-10-12-14b--12h14p12~~~--------------------------|
A|---------------------------------------------------------------------------|
E|---------------------------------------------------------------------------|

Time = 2.30
e|---------------------------------------------------------------------------|
B|---------------------------------------------------------------------------|
G|---------------------------------------------------------------------------|
D|--7--7-7-7-7-7-7-7----7--7-7-7-7-7-7-7-8-----------------------------------|
A|---------------------------------------------------------------------------|
E|---------------------------------------------------------------------------|

Time = 2.35
e|---------------------------------------------------------------------------|
B|---------------------------------------------------------------------------|
G|---------------------------------------------------------------------------|
D|--7-9-10-12b-10~~~-3h4-7-9-10-12-14b--12h14p12~~~--------------------------|
A|---------------------------------------------------------------------------|
E|---------------------------------------------------------------------------|

Time = 2.51
e|---------------------------------------------------------------------------|
B|---------------------------------------------------------------------------|
G|---------------------------------------------------------------------------|
D|-2--5--2--4----------------------------------------------------------------|
A|-0--3--0--2----------------------------------------------------------------|
E|---------------------------------------------------------------------------|

Time = 2.55 [GUITAR 1]
e|---------------------------------------------------------------------------|
B|---------------------------------------------------------------------------|
G|---------------------------------------------------------------------------|
D|--7-7-8--7-7-8--7-7-8--7-7-8-----------------------------------------------|---|Play 5 Times|
A|---------------------------------------------------------------------------|
E|---------------------------------------------------------------------------|

Time = 3.03 [harmonised][ choose to play this part or GUITAR 1]
e|---------------------------------------------------------------------------|
B|---------------------------------------------------------------------------|
G|---------------------------------------------------------------------------|
D|--12-12-13--12-12-13--12-12-13--12-12-13-----------------------------------|---|Play 3 Times|
A|---------------------------------------------------------------------------|
E|---------------------------------------------------------------------------|

Time = 3.15 [play till fade out]
e|---------------------------------------------------------------------------|
B|---------------------------------------------------------------------------|
G|---------------------------------------------------------------------------|
D|-7-9b-7--10-9-5--10-14-12--10-9----/10--7-14-12--12-14-15-19-20-19~~~------|
A|---------------------------------------------------------------------------|
E|---------------------------------------------------------------------------|


===============================================================================
| b  bend
| /  slide up
| \  slide down
| h  hammer-on
| p  pull-off
| ~  vibrato
| +  harmonic
| x  Mute note
===============================================================================
Tap to rate this tab
 
# A B C D E F G H I J K L M N O P Q R S T U V W X Y Z