Song name
# A B C D E F G H I J K L M N O P Q R S T U V W X Y Z

Misc Computer Games - Perfect Dark - Air Base X tab

Perfect Dark - Air Base X
tabbed by AKS

Synth track for guitar


Intro Part: x2   (00:00 - 00:19)

e|----------------------------------------------------------------------------------|
B|----------------------------------------------------------------------------------|
G|---------12-12------------------------------------12-12-----------------12--10----|
D|--10--13----------10-13-10-13----12--------10--13----------10-13-10-13------------|
A|-------------------------------------13-------------------------------------------|
E|----------------------------------------------------------------------------------|

  ----------------------------------------------------------------------------------|
  ----------------------------------------------------------------------------------|
  ---------12-12---------------------------------------10---------------------------|
  --10--13----------10-13-10-13----12--------10----13--------13--12--10-------------|
  -------------------------------------13-------------------------------------------|
  ----------------------------------------------------------------------------------|


Middle Part: x2   (00:19 - 00:38)

e|----------------------------------------------------------------------------------|
B|---------------------------------------12--------------12---------15--------------|
G|---------------------------10--12--13--------15--13--------15--10-----10----------|
D|-----------------13--10-----------------------------------------------------------|
A|--11----13-14---------------------------------------------------------------------|
E|----------------------------------------------------------------------------------|

  ----------------------------------------------------------------------------------|
  ---------------------------------------12--------12----------------13---15---18---|
  ---------------------------10--12--13--------15--------13----15-------------------|
  -----------------13--10-----------------------------------------------------------|
  --11----13-14---------------------------------------------------------------------|
  ----------------------------------------------------------------------------------|


Bridge Part 1:   (00:38 - 00:48)

e|----------------------------------------------------------------------------------|
B|----------------------------------------------------------------------------------|
G|--------------------------------------------------------------------------5-------|
D|-------------5----6--3--5-----3--------------------------------------5-------5----|
A|--3----6-5-3---------------6-----5----6--5--3--2--3----4----3--6--3---------------|
E|----------------------------------------------------------------------------------|

  ----------------------------------------------------------------------------------|
  ----------------------------------------------------------------------------------|
  --3--------3----------------------------------------------------------------------|
  -----5--6-----6--5--3--5---------5------------------------------------------------|
  ----------------------------6---------5--6--5--2--3-------------------------------|
  ----------------------------------------------------------------------------------|


Bridge Part 2:  (00:48 - end)

e|----------------------------------------------------------------------------------|
B|----------------------------------------------------------------------------------|
G|----------------------------------------------------------------------------------|
D|--10--8-----------------10----------------------------------------12--------------|
A|---------10-11----10----------10--11--8--10--------10----13-12-10-----------------|
E|----------------------------------------------------------------------------------|


Fast End Bit:
e|----------------------------------------------------------------------------------|
B|----------------------------------------------------------------------------------|
G|--13-12-10-12----10---------------------------------------------------------------|
D|--------------13----12-13-10-12-10-9----10--5-------------------------------------|
A|-------------------------------------------------8--6--5--3-----------------------|
E|----------------------------------------------------------------------------------|

Please comment any critique or corrections!
Tap to rate this tab
# A B C D E F G H I J K L M N O P Q R S T U V W X Y Z