Song name
# A B C D E F G H I J K L M N O P Q R S T U V W X Y Z

Misc Computer Games - Tekken 3 - Jin Kazama Theme tab

-------------------------------------------------------------------------------
			     Tekken 3 Jin Kazama Theme - Misc computer games
-------------------------------------------------------------------------------
Tabbed by:aziz razavi
Email:azizrazavi@hotmail.com

Tuning:Standard
   intro (arcade version)
e|--------------------------------------------------------------------------
B|--------------------------------------------------------------------------
G|--------------------------------------------------------------------------
D|----------7---------7-------------------7---------9-h-10-p-9-p-7----------
A|-9-p-7-h-9-9-p-7-h-9-9-p-7-h-9-9-p-7-h-9-9-p-7-h-9--------------9---------
E|--------------------------------------------------------------------------
 alternate intro
e|-------------------------------------------------------------------------
B|--------------------------------------------------------------------------
G|--------------------------------------------------------------------------
D|----------7--------7-------------------7---------9-h-10-p-9-p-7-9-h-10-p-9
A|-9-p-7-h-9-9-h-7-p-9-9-h-7-p9-9-p-7-h-9-9-h-7-p-9--------------9----------
E|--------------------------------------------------------------------------
                       later on x2               after
e|----------------|----------------------------|------------------------|-|-
B|----------------|----------------------------|------------------------|-|-
G|----------------|----------------------------|------------------------|-|-
D|----------------|----------------------------|------------------------|-|-
A|-p-7-10-p-9-p-7-|-4-4-2-4--4-4-2-4-7-7-7-9-9-|------0-2-0-2-3-p-2-p-0-|-|-
E|----9----------9|-2-2-0-2--2-2-0-2-5-5-5-7-7-|-2-0-2------------------|-|-



| /  slide up
| \  slide down
| h  hammer-on
| p  pull-off
| ~  vibrato
| +  harmonic
| x  Mute note
===============================================================================
Tap to rate this tab
# A B C D E F G H I J K L M N O P Q R S T U V W X Y Z