Song name
# A B C D E F G H I J K L M N O P Q R S T U V W X Y Z

Misc Computer Games - Donkey Kong Country - Jungle Hijinx tab

-------------------------------------------------------------------------------
         Donkey Kong Country Jungle Hijinx - Misc Computer Games
-------------------------------------------------------------------------------
Tabbed by:aziz razavi
Email:azizrazavi@hotmail.com

Tuning:Standard
                            bassline
e|-----|-----|-----|-----|--------------------------------|-5-5--7-7--8-8---|
B|-----|-3-3-|-3-3-|-3-3-|--------------------------------|-5-5--7-7--8-8---|
G|-2-2-|-2-2-|-5-5-|-4-4-|--------------------------------|-5-5--7-7--9-9---|
D|-2-2-|-----|-5-5-|-5-5-|--------------------------------|-----------------|
A|-----|-----|-----|-----|-0-0-------------0-0-----3-2-0--|-----------------|
E|-----|-----|-----|-----|----0-0-1-1-3-1-3---0-0-1-----3-|-----------------|
          Piano solo
e|-7-7-|-------------15--15--15--15--15--15-----------------|--------12-----|
B|-7-7-|---13-15-/-17--17--17--17--17--17--17-17-\-15-13----|---13-15-------|
G|-7-7-|-14----------------------------------------------14-|-14-------14---|
D|-----|----------------------------------------------------|---------------|
A|-----|----------------------------------------------------|---------------|
E|-----|----------------------------------------------------|---------------|

e|--------12----------------------------------------------------------------|
B|---13-15---13--15-16-15-13-15------12-15--------12-15-16-17-16-17-16-15---|
G|-14------14-------------------13-14-----13-13-14--------------------------|
D|--------------------------------------------------------------------------|
A|--------------------------------------------------------------------------|
E|--------------------------------------------------------------------------|

e|-13-12-13-------12----------12--------------------------------------------|
B|-----------13-15-------13-15----13-15-16-15-13-15-----12-15--------12-15--|
G|---------14-------14-14-------14-----------------13-14-----13-13-14-------|
D|--------------------------------------------------------------------------|
A|--------------------------------------------------------------------------|
E|--------------------------------------------------------------------------|
                                 after bongo fill
e|-----------------------16-/-17|--------------------------------------------|
B|------------11-12-13-14-------|---------15--------14-h-15-p-14-h-15-p-14---|h
G|-12-13-14-15------------------|-13-14-16--17-16-17-------------------------|
D|------------------------------|--------------------------------------------|
A|------------------------------|--------------------------------------------|
E|------------------------------|--------------------------------------------|

e|----------------------------------------15-17-18----------------17-18-----|
B|-15--14-h-15-p-14-h-15-p-14-h-15-------------------------------------18---|
G|--------------------------------12-14-15--------12-14-15-14-15------------|
D|--------------------------------------------------------------15----------|
A|--------------------------------------------------------------------------|
E|--------------------------------------------------------------------------|

e|-----------------------------------------------------------------------------|
B|-----------------------|-----------------------------------------------------|
G|-14-15--14-15--14-15---|-----------------------------------------------------|
D|------15-----15-----15-|-----------------------------------------------------|
A|-----------------------|-----------------------------------------------------|
E|-----------------------|-----------------------------------------------------|

Enjoy!!!


| /  slide up
| \  slide down
| h  hammer-on
| p  pull-off
| ~  vibrato
| +  harmonic
| x  Mute note
===============================================================================
Tap to rate this tab
# A B C D E F G H I J K L M N O P Q R S T U V W X Y Z